   0
SECTION
   2
HEADER
   9
$LIMMIN
  10
0.0
  20
0.0
   9
$LIMMAX
  10
 210.000
  20
 297.000
   9
$EXTMIN
  10
0.0
  20
0.0
   9
$EXTMAX
  10
 210.000
  20
 297.000
   9
$LTSCALE
  40
 5.94000
   0
ENDSEC
   0
SECTION
   2
TABLES
  0
TABLE
  2
LTYPE
 70
    25
  0
LTYPE
  2
CONTINUOUS
 70
    64
  3
Solid line
 72
    65
 73
     0
 40
0.0
  0
LTYPE
  2
BORDER
 70
    64
  3
__ __ . __ __ . __ __ . __ __ . __ __ . __ __ .
 72
    65
 73
     6
 40
1.75
 49
0.5
 49
-0.25
 49
0.5
 49
-0.25
 49
0.0
 49
-0.25
  0
LTYPE
  2
BORDER2
 70
    64
  3
__.__.__.__.__.__.__.__.__.__.__.__.__.__.__.__
 72
    65
 73
     6
 40
0.875
 49
0.25
 49
-0.125
 49
0.25
 49
-0.125
 49
0.0
 49
-0.125
  0
LTYPE
  2
BORDERX2
 70
    64
  3
____  ____  .  ____  ____  .  ____  ____  .  __
 72
    65
 73
     6
 40
3.5
 49
1.0
 49
-0.5
 49
1.0
 49
-0.5
 49
0.0
 49
-0.5
  0
LTYPE
  2
CENTER
 70
    64
  3
____ _ ____ _ ____ _ ____ _ ____ _ ____ _ ____ 
 72
    65
 73
     4
 40
2.0
 49
1.25
 49
-0.25
 49
0.25
 49
-0.25
  0
LTYPE
  2
CENTER2
 70
    64
  3
___ _ ___ _ ___ _ ___ _ ___ _ ___ _ ___ _ ___ _
 72
    65
 73
     4
 40
1.125
 49
0.75
 49
-0.125
 49
0.125
 49
-0.125
  0
LTYPE
  2
CENTERX2
 70
    64
  3
________  __  ________  __  ________  __  _____
 72
    65
 73
     4
 40
4.0
 49
2.5
 49
-0.5
 49
0.5
 49
-0.5
  0
LTYPE
  2
DASHDOT
 70
    64
  3
__ . __ . __ . __ . __ . __ . __ . __ . __ . __
 72
    65
 73
     4
 40
1.0
 49
0.5
 49
-0.25
 49
0.0
 49
-0.25
  0
LTYPE
  2
DASHDOT2
 70
    64
  3
_._._._._._._._._._._._._._._._._._._._._._._._
 72
    65
 73
     4
 40
0.5
 49
0.25
 49
-0.125
 49
0.0
 49
-0.125
  0
LTYPE
  2
DASHDOTX2
 70
    64
  3
____  .  ____  .  ____  .  ____  .  ____  .  __
 72
    65
 73
     4
 40
2.0
 49
1.0
 49
-0.5
 49
0.0
 49
-0.5
  0
LTYPE
  2
DASHED
 70
    64
  3
__ __ __ __ __ __ __ __ __ __ __ __ __ __ __ __
 72
    65
 73
     2
 40
0.75
 49
0.5
 49
-0.25
  0
LTYPE
  2
DASHED2
 70
    64
  3
_ _ _ _ _ _ _ _ _ _ _ _ _ _ _ _ _ _ _ _ _ _ _ _
 72
    65
 73
     2
 40
0.375
 49
0.25
 49
-0.125
  0
LTYPE
  2
DASHEDX2
 70
    64
  3
____  ____  ____  ____  ____  ____  ____  ____ 
 72
    65
 73
     2
 40
1.5
 49
1.0
 49
-0.5
  0
LTYPE
  2
DIVIDE
 70
    64
  3
____ . . ____ . . ____ . . ____ . . ____ . . __
 72
    65
 73
     6
 40
1.25
 49
0.5
 49
-0.25
 49
0.0
 49
-0.25
 49
0.0
 49
-0.25
  0
LTYPE
  2
DIVIDE2
 70
    64
  3
__..__..__..__..__..__..__..__..__..__..__..__.
 72
    65
 73
     6
 40
0.625
 49
0.25
 49
-0.125
 49
0.0
 49
-0.125
 49
0.0
 49
-0.125
  0
LTYPE
  2
DIVIDEX2
 70
    64
  3
________  .  .  ________  .  .  ________  .  . 
 72
    65
 73
     6
 40
2.5
 49
1.0
 49
-0.5
 49
0.0
 49
-0.5
 49
0.0
 49
-0.5
  0
LTYPE
  2
DOT
 70
    64
  3
. . . . . . . . . . . . . . . . . . . . . . . .
 72
    65
 73
     2
 40
0.25
 49
0.0
 49
-0.25
  0
LTYPE
  2
DOT2
 70
    64
  3
...............................................
 72
    65
 73
     2
 40
0.125
 49
0.0
 49
-0.125
  0
LTYPE
  2
DOTX2
 70
    64
  3
.  .  .  .  .  .  .  .  .  .  .  .  .  .  .  . 
 72
    65
 73
     2
 40
0.5
 49
0.0
 49
-0.5
  0
LTYPE
  2
HIDDEN
 70
    64
  3
__ __ __ __ __ __ __ __ __ __ __ __ __ __ __ __
 72
    65
 73
     2
 40
0.375
 49
0.25
 49
-0.125
  0
LTYPE
  2
HIDDEN2
 70
    64
  3
_ _ _ _ _ _ _ _ _ _ _ _ _ _ _ _ _ _ _ _ _ _ _ _
 72
    65
 73
     2
 40
0.1875
 49
0.125
 49
-0.0625
  0
LTYPE
  2
HIDDENX2
 70
    64
  3
____ ____ ____ ____ ____ ____ ____ ____ ____ __
 72
    65
 73
     2
 40
0.75
 49
0.5
 49
-0.25
  0
LTYPE
  2
PHANTOM
 70
    64
  3
______  __  __  ______  __  __  ______  __  __ 
 72
    65
 73
     6
 40
2.5
 49
1.25
 49
-0.25
 49
0.25
 49
-0.25
 49
0.25
 49
-0.25
  0
LTYPE
  2
PHANTOM2
 70
    64
  3
___ _ _ ___ _ _ ___ _ _ ___ _ _ ___ _ _ ___ _ _
 72
    65
 73
     6
 40
1.25
 49
0.625
 49
-0.125
 49
0.125
 49
-0.125
 49
0.125
 49
-0.125
  0
LTYPE
  2
PHANTOMX2
 70
    64
  3
____________    ____    ____    ____________   
 72
    65
 73
     6
 40
5.0
 49
2.5
 49
-0.5
 49
0.5
 49
-0.5
 49
0.5
 49
-0.5
  0
ENDTAB
  0
TABLE
  2
STYLE
 70
     2
  0
STYLE
  2
STANDARD
 70
0
 40
0.0
 41
1.0
 50
0.0
 71
0
 42
0.2
  3
TXT
  4
BIGFONT
  0
STYLE
  2
STANDARD1
 70
     4
 40
0.0
 41
1.0
 50
0.0
 71
     0
 42
0.2
  3
TXT
  4
BIGFONT
  0
ENDTAB
   0
TABLE
   2
LAYER
  70
2
   0
LAYER
   2
0
  70
0
  62
7
   6
CONTINUOUS
   0
LAYER
   2
LEVEL001
  70
0
  62
7
   6
CONTINUOUS
   0
ENDTAB
   0
ENDSEC
   0
SECTION
   2
ENTITIES
   0
TEXT
   8
LEVEL001
  62
7
  10
 57.3099
  20
 6.14506
  30
0.0
  40
 12.0000
   1
‚d‚k‚— series
   7
STANDARD
  72
1
  11
 96.3099
  21
 14.1451
  31
0.0
  73
2
   0
LINE
   8
LEVEL001
   6
DASHDOT
  62
1
  10
 68.3099
  20
 183.075
  30
0.0
  11
 68.3099
  21
 195.144
  31
0.0
   0
LINE
   8
LEVEL001
   6
DASHDOT
  62
1
  10
 124.310
  20
 183.075
  30
0.0
  11
 124.310
  21
 195.144
  31
0.0
   0
ARC
   8
LEVEL001
   6
CONTINUOUS
  62
7
  10
 56.0318
  20
 204.342
  30
0.0
  40
 0.400000
  50
 3.00128
  51
 90.0018
   0
LINE
   8
LEVEL001
   6
CONTINUOUS
  62
7
  10
 118.610
  20
 189.142
  30
0.0
  11
 130.010
  21
 189.142
  31
0.0
   0
ARC
   8
LEVEL001
   6
CONTINUOUS
  62
7
  10
 132.162
  20
 193.626
  30
0.0
  40
 0.800000
  50
 111.108
  51
 163.614
   0
LINE
   8
LEVEL001
   6
CONTINUOUS
  62
7
  10
 130.010
  20
 189.142
  30
0.0
  11
 131.394
  21
 193.851
  31
0.0
   0
ARC
   8
LEVEL001
   6
CONTINUOUS
  62
7
  10
 116.522
  20
 193.142
  30
0.0
  40
 0.800000
  50
 17.3544
  51
 90.0004
   0
LINE
   8
LEVEL001
   6
CONTINUOUS
  62
7
  10
 117.285
  20
 193.381
  30
0.0
  11
 118.610
  21
 189.142
  31
0.0
   0
ARC
   8
LEVEL001
   6
CONTINUOUS
  62
7
  10
 153.510
  20
 204.749
  30
0.0
  40
 0.800000
  50
0.0
  51
 89.5036
   0
LINE
   8
LEVEL001
   6
CONTINUOUS
  62
7
  10
 154.310
  20
 204.749
  30
0.0
  11
 154.310
  21
 195.535
  31
0.0
   0
ARC
   8
LEVEL001
   6
CONTINUOUS
  62
7
  10
 153.510
  20
 195.535
  30
0.0
  40
 0.800000
  50
 270.499
  51
 0.129606E-3
   0
LINE
   8
LEVEL001
   6
CONTINUOUS
  62
7
  10
 153.517
  20
 194.735
  30
0.0
  11
 144.310
  21
 194.655
  31
0.0
   0
ARC
   8
LEVEL001
   6
CONTINUOUS
  62
7
  10
 143.910
  20
 194.342
  30
0.0
  40
 0.400000
  50
 269.998
  51
 0.578891E-3
   0
LINE
   8
LEVEL001
   6
CONTINUOUS
  62
7
  10
 63.0508
  20
 193.942
  30
0.0
  11
 129.569
  21
 193.942
  31
0.0
   0
LINE
   8
LEVEL001
   6
CONTINUOUS
  62
7
  10
 131.394
  20
 193.942
  30
0.0
  11
 143.910
  21
 193.942
  31
0.0
   0
LINE
   8
LEVEL001
   6
CONTINUOUS
  62
7
  10
 137.910
  20
 204.742
  30
0.0
  11
 137.910
  21
 202.342
  31
0.0
   0
ARC
   8
LEVEL001
   6
CONTINUOUS
  62
7
  10
 138.310
  20
 202.342
  30
0.0
  40
 0.400000
  50
 180.001
  51
 269.997
   0
LINE
   8
LEVEL001
   6
CONTINUOUS
  62
7
  10
 138.310
  20
 201.942
  30
0.0
  11
 143.110
  21
 201.942
  31
0.0
   0
ARC
   8
LEVEL001
   6
CONTINUOUS
  62
7
  10
 143.110
  20
 202.342
  30
0.0
  40
 0.400000
  50
 269.998
  51
0.0
   0
LINE
   8
LEVEL001
   6
CONTINUOUS
  62
7
  10
 143.510
  20
 202.342
  30
0.0
  11
 143.510
  21
 204.742
  31
0.0
   0
LINE
   8
LEVEL001
   6
CONTINUOUS
  62
7
  10
 132.550
  20
 196.742
  30
0.0
  11
 138.030
  21
 201.942
  31
0.0
   0
LINE
   8
LEVEL001
   6
CONTINUOUS
  62
7
  10
 132.550
  20
 196.742
  30
0.0
  11
 133.990
  21
 196.742
  31
0.0
   0
LINE
   8
LEVEL001
   6
CONTINUOUS
  62
7
  10
 139.470
  20
 201.942
  30
0.0
  11
 133.990
  21
 196.742
  31
0.0
   0
ARC
   8
LEVEL001
   6
CONTINUOUS
  62
7
  10
 129.569
  20
 200.342
  30
0.0
  40
 6.40000
  50
 270.000
  51
 341.429
   0
ARC
   8
LEVEL001
   6
CONTINUOUS
  62
7
  10
 134.277
  20
 204.342
  30
0.0
  40
 0.400000
  50
 89.9982
  51
 176.999
   0
LINE
   8
LEVEL001
   6
CONTINUOUS
  62
7
  10
 133.650
  20
 200.007
  30
0.0
  11
 133.878
  21
 204.363
  31
0.0
   0
LINE
   8
LEVEL001
   6
CONTINUOUS
  62
7
  10
 123.910
  20
 196.742
  30
0.0
  11
 124.710
  21
 196.742
  31
0.0
   0
ARC
   8
LEVEL001
   6
CONTINUOUS
  62
7
  10
 125.376
  20
 204.342
  30
0.0
  40
 0.400000
  50
 90.0104
  51
 177.999
   0
LINE
   8
LEVEL001
   6
CONTINUOUS
  62
7
  10
 124.710
  20
 196.742
  30
0.0
  11
 124.976
  21
 204.356
  31
0.0
   0
ARC
   8
LEVEL001
   6
CONTINUOUS
  62
7
  10
 123.244
  20
 204.342
  30
0.0
  40
 0.400000
  50
 1.99971
  51
 90.0106
   0
LINE
   8
LEVEL001
   6
CONTINUOUS
  62
7
  10
 123.644
  20
 204.356
  30
0.0
  11
 123.910
  21
 196.742
  31
0.0
   0
ARC
   8
LEVEL001
   6
CONTINUOUS
  62
7
  10
 97.3756
  20
 204.342
  30
0.0
  40
 0.400000
  50
 90.0078
  51
 177.999
   0
LINE
   8
LEVEL001
   6
CONTINUOUS
  62
7
  10
 96.7099
  20
 196.742
  30
0.0
  11
 96.9758
  21
 204.356
  31
0.0
   0
LINE
   8
LEVEL001
   6
CONTINUOUS
  62
7
  10
 96.3099
  20
 196.742
  30
0.0
  11
 96.7099
  21
 196.742
  31
0.0
   0
ARC
   8
LEVEL001
   6
CONTINUOUS
  62
7
  10
 127.258
  20
 200.342
  30
0.0
  40
 6.40000
  50
 325.772
  51
 357.000
   0
LINE
   8
LEVEL001
   6
CONTINUOUS
  62
7
  10
 96.3099
  20
 204.742
  30
0.0
  11
 145.710
  21
 204.742
  31
0.0
   0
LINE
   8
LEVEL001
   6
CONTINUOUS
  62
7
  10
 144.310
  20
 194.342
  30
0.0
  11
 144.310
  21
 204.742
  31
0.0
   0
LINE
   8
LEVEL001
   6
CONTINUOUS
  62
7
  10
 145.679
  20
 205.618
  30
0.0
  11
 153.517
  21
 205.549
  31
0.0
   0
ARC
   8
LEVEL001
   6
CONTINUOUS
  62
7
  10
 144.791
  20
 208.123
  30
0.0
  40
 0.800000
  50
 2.00145
  51
 75.0028
   0
LINE
   8
LEVEL001
   6
CONTINUOUS
  62
7
  10
 144.234
  20
 209.101
  30
0.0
  11
 144.998
  21
 208.896
  31
0.0
   0
LINE
   8
LEVEL001
   6
CONTINUOUS
  62
7
  10
 145.591
  20
 208.151
  30
0.0
  11
 145.710
  21
 204.742
  31
0.0
   0
LINE
   8
LEVEL001
   6
CONTINUOUS
  62
7
  10
 145.297
  20
 208.742
  30
0.0
  11
 96.3099
  21
 208.742
  31
0.0
   0
LINE
   8
LEVEL001
   6
CONTINUOUS
  62
7
  10
 134.832
  20
 209.942
  30
0.0
  11
 139.310
  21
 208.742
  31
0.0
   0
ARC
   8
LEVEL001
   6
CONTINUOUS
  62
7
  10
 138.310
  20
 209.542
  30
0.0
  40
 0.400000
  50
 90.0034
  51
 180.001
   0
LINE
   8
LEVEL001
   6
CONTINUOUS
  62
7
  10
 138.310
  20
 209.942
  30
0.0
  11
 143.110
  21
 209.942
  31
0.0
   0
ARC
   8
LEVEL001
   6
CONTINUOUS
  62
7
  10
 143.110
  20
 209.542
  30
0.0
  40
 0.400000
  50
0.0
  51
 90.0019
   0
LINE
   8
LEVEL001
   6
CONTINUOUS
  62
7
  10
 143.510
  20
 209.542
  30
0.0
  11
 143.510
  21
 208.742
  31
0.0
   0
ARC
   8
LEVEL001
   6
CONTINUOUS
  62
7
  10
 144.751
  20
 211.032
  30
0.0
  40
 2.00000
  50
 184.999
  51
 213.583
   0
ARC
   8
LEVEL001
   6
CONTINUOUS
  62
7
  10
 144.751
  20
 211.032
  30
0.0
  40
 2.00000
  50
 230.198
  51
 255.000
   0
LINE
   8
LEVEL001
   6
CONTINUOUS
  62
7
  10
 137.910
  20
 209.118
  30
0.0
  11
 137.910
  21
 209.542
  31
0.0
   0
LINE
   8
LEVEL001
   6
CONTINUOUS
  62
7
  10
 120.310
  20
 273.142
  30
0.0
  11
 122.813
  21
 244.532
  31
0.0
   0
POLYLINE
   8
LEVEL001
   6
CONTINUOUS
  62
7
  66
1
  10
0.0
  20
0.0
  30
0.0
  70
0
   0
VERTEX
   8
LEVEL001
   6
CONTINUOUS
  62
7
  10
 138.710
  20
 209.942
  30
0.0
   0
VERTEX
   8
LEVEL001
   6
CONTINUOUS
  62
7
  10
 138.710
  20
 210.342
  30
0.0
   0
VERTEX
   8
LEVEL001
   6
CONTINUOUS
  62
7
  10
 142.710
  20
 210.342
  30
0.0
   0
VERTEX
   8
LEVEL001
   6
CONTINUOUS
  62
7
  10
 142.710
  20
 209.942
  30
0.0
   0
SEQEND
   0
POLYLINE
   8
LEVEL001
   6
CONTINUOUS
  62
7
  66
1
  10
0.0
  20
0.0
  30
0.0
  70
0
   0
VERTEX
   8
LEVEL001
   6
CONTINUOUS
  62
7
  10
 138.862
  20
 210.342
  30
0.0
   0
VERTEX
   8
LEVEL001
   6
CONTINUOUS
  62
7
  10
 138.862
  20
 211.800
  30
0.0
   0
VERTEX
   8
LEVEL001
   6
CONTINUOUS
  62
7
  10
 139.110
  20
 211.942
  30
0.0
   0
VERTEX
   8
LEVEL001
   6
CONTINUOUS
  62
7
  10
 142.310
  20
 211.942
  30
0.0
   0
VERTEX
   8
LEVEL001
   6
CONTINUOUS
  62
7
  10
 142.557
  20
 211.799
  30
0.0
   0
VERTEX
   8
LEVEL001
   6
CONTINUOUS
  62
7
  10
 142.557
  20
 210.342
  30
0.0
   0
SEQEND
   0
POLYLINE
   8
LEVEL001
   6
CONTINUOUS
  62
7
  66
1
  10
0.0
  20
0.0
  30
0.0
  70
0
   0
VERTEX
   8
LEVEL001
   6
CONTINUOUS
  62
7
  10
 141.634
  20
 211.799
  30
0.0
   0
VERTEX
   8
LEVEL001
   6
CONTINUOUS
  62
7
  10
 141.626
  20
 211.817
  30
0.0
   0
VERTEX
   8
LEVEL001
   6
CONTINUOUS
  62
7
  10
 141.605
  20
 211.835
  30
0.0
   0
VERTEX
   8
LEVEL001
   6
CONTINUOUS
  62
7
  10
 141.569
  20
 211.852
  30
0.0
   0
VERTEX
   8
LEVEL001
   6
CONTINUOUS
  62
7
  10
 141.521
  20
 211.868
  30
0.0
   0
VERTEX
   8
LEVEL001
   6
CONTINUOUS
  62
7
  10
 141.459
  20
 211.883
  30
0.0
   0
VERTEX
   8
LEVEL001
   6
CONTINUOUS
  62
7
  10
 141.386
  20
 211.897
  30
0.0
   0
VERTEX
   8
LEVEL001
   6
CONTINUOUS
  62
7
  10
 141.302
  20
 211.909
  30
0.0
   0
VERTEX
   8
LEVEL001
   6
CONTINUOUS
  62
7
  10
 141.209
  20
 211.920
  30
0.0
   0
VERTEX
   8
LEVEL001
   6
CONTINUOUS
  62
7
  10
 141.108
  20
 211.928
  30
0.0
   0
VERTEX
   8
LEVEL001
   6
CONTINUOUS
  62
7
  10
 141.001
  20
 211.935
  30
0.0
   0
VERTEX
   8
LEVEL001
   6
CONTINUOUS
  62
7
  10
 140.890
  20
 211.940
  30
0.0
   0
VERTEX
   8
LEVEL001
   6
CONTINUOUS
  62
7
  10
 140.775
  20
 211.942
  30
0.0
   0
VERTEX
   8
LEVEL001
   6
CONTINUOUS
  62
7
  10
 140.660
  20
 211.942
  30
0.0
   0
VERTEX
   8
LEVEL001
   6
CONTINUOUS
  62
7
  10
 140.545
  20
 211.940
  30
0.0
   0
VERTEX
   8
LEVEL001
   6
CONTINUOUS
  62
7
  10
 140.433
  20
 211.936
  30
0.0
   0
VERTEX
   8
LEVEL001
   6
CONTINUOUS
  62
7
  10
 140.325
  20
 211.929
  30
0.0
   0
VERTEX
   8
LEVEL001
   6
CONTINUOUS
  62
7
  10
 140.224
  20
 211.921
  30
0.0
   0
VERTEX
   8
LEVEL001
   6
CONTINUOUS
  62
7
  10
 140.130
  20
 211.911
  30
0.0
   0
VERTEX
   8
LEVEL001
   6
CONTINUOUS
  62
7
  10
 140.044
  20
 211.899
  30
0.0
   0
VERTEX
   8
LEVEL001
   6
CONTINUOUS
  62
7
  10
 139.970
  20
 211.885
  30
0.0
   0
VERTEX
   8
LEVEL001
   6
CONTINUOUS
  62
7
  10
 139.907
  20
 211.870
  30
0.0
   0
VERTEX
   8
LEVEL001
   6
CONTINUOUS
  62
7
  10
 139.856
  20
 211.854
  30
0.0
   0
VERTEX
   8
LEVEL001
   6
CONTINUOUS
  62
7
  10
 139.819
  20
 211.837
  30
0.0
   0
VERTEX
   8
LEVEL001
   6
CONTINUOUS
  62
7
  10
 139.795
  20
 211.820
  30
0.0
   0
VERTEX
   8
LEVEL001
   6
CONTINUOUS
  62
7
  10
 139.786
  20
 211.802
  30
0.0
   0
VERTEX
   8
LEVEL001
   6
CONTINUOUS
  62
7
  10
 139.786
  20
 211.799
  30
0.0
   0
SEQEND
   0
LINE
   8
LEVEL001
   6
CONTINUOUS
  62
7
  10
 139.786
  20
 211.799
  30
0.0
  11
 139.786
  21
 210.342
  31
0.0
   0
LINE
   8
LEVEL001
   6
CONTINUOUS
  62
7
  10
 141.634
  20
 211.799
  30
0.0
  11
 141.634
  21
 210.342
  31
0.0
   0
POLYLINE
   8
LEVEL001
   6
CONTINUOUS
  62
7
  66
1
  10
0.0
  20
0.0
  30
0.0
  70
0
   0
VERTEX
   8
LEVEL001
   6
CONTINUOUS
  62
7
  10
 139.786
  20
 211.799
  30
0.0
   0
VERTEX
   8
LEVEL001
   6
CONTINUOUS
  62
7
  10
 139.781
  20
 211.817
  30
0.0
   0
VERTEX
   8
LEVEL001
   6
CONTINUOUS
  62
7
  10
 139.765
  20
 211.835
  30
0.0
   0
VERTEX
   8
LEVEL001
   6
CONTINUOUS
  62
7
  10
 139.739
  20
 211.852
  30
0.0
   0
VERTEX
   8
LEVEL001
   6
CONTINUOUS
  62
7
  10
 139.703
  20
 211.868
  30
0.0
   0
VERTEX
   8
LEVEL001
   6
CONTINUOUS
  62
7
  10
 139.658
  20
 211.883
  30
0.0
   0
VERTEX
   8
LEVEL001
   6
CONTINUOUS
  62
7
  10
 139.605
  20
 211.897
  30
0.0
   0
VERTEX
   8
LEVEL001
   6
CONTINUOUS
  62
7
  10
 139.543
  20
 211.909
  30
0.0
   0
VERTEX
   8
LEVEL001
   6
CONTINUOUS
  62
7
  10
 139.475
  20
 211.920
  30
0.0
   0
VERTEX
   8
LEVEL001
   6
CONTINUOUS
  62
7
  10
 139.401
  20
 211.928
  30
0.0
   0
VERTEX
   8
LEVEL001
   6
CONTINUOUS
  62
7
  10
 139.323
  20
 211.935
  30
0.0
   0
VERTEX
   8
LEVEL001
   6
CONTINUOUS
  62
7
  10
 139.241
  20
 211.940
  30
0.0
   0
VERTEX
   8
LEVEL001
   6
CONTINUOUS
  62
7
  10
 139.158
  20
 211.942
  30
0.0
   0
VERTEX
   8
LEVEL001
   6
CONTINUOUS
  62
7
  10
 139.110
  20
 211.942
  30
0.0
   0
SEQEND
   0
POLYLINE
   8
LEVEL001
   6
CONTINUOUS
  62
7
  66
1
  10
0.0
  20
0.0
  30
0.0
  70
0
   0
VERTEX
   8
LEVEL001
   6
CONTINUOUS
  62
7
  10
 142.310
  20
 211.942
  30
0.0
   0
VERTEX
   8
LEVEL001
   6
CONTINUOUS
  62
7
  10
 142.226
  20
 211.941
  30
0.0
   0
VERTEX
   8
LEVEL001
   6
CONTINUOUS
  62
7
  10
 142.143
  20
 211.938
  30
0.0
   0
VERTEX
   8
LEVEL001
   6
CONTINUOUS
  62
7
  10
 142.062
  20
 211.932
  30
0.0
   0
VERTEX
   8
LEVEL001
   6
CONTINUOUS
  62
7
  10
 141.986
  20
 211.925
  30
0.0
   0
VERTEX
   8
LEVEL001
   6
CONTINUOUS
  62
7
  10
 141.914
  20
 211.915
  30
0.0
   0
VERTEX
   8
LEVEL001
   6
CONTINUOUS
  62
7
  10
 141.849
  20
 211.904
  30
0.0
   0
VERTEX
   8
LEVEL001
   6
CONTINUOUS
  62
7
  10
 141.791
  20
 211.891
  30
0.0
   0
VERTEX
   8
LEVEL001
   6
CONTINUOUS
  62
7
  10
 141.741
  20
 211.877
  30
0.0
   0
VERTEX
   8
LEVEL001
   6
CONTINUOUS
  62
7
  10
 141.700
  20
 211.861
  30
0.0
   0
VERTEX
   8
LEVEL001
   6
CONTINUOUS
  62
7
  10
 141.668
  20
 211.845
  30
0.0
   0
VERTEX
   8
LEVEL001
   6
CONTINUOUS
  62
7
  10
 141.647
  20
 211.827
  30
0.0
   0
VERTEX
   8
LEVEL001
   6
CONTINUOUS
  62
7
  10
 141.635
  20
 211.810
  30
0.0
   0
VERTEX
   8
LEVEL001
   6
CONTINUOUS
  62
7
  10
 141.634
  20
 211.799
  30
0.0
   0
SEQEND
   0
ARC
   8
LEVEL001
   6
CONTINUOUS
  62
7
  10
 96.3102
  20
-123.858
  30
0.0
  40
 400.000
  50
 86.3309
  51
 93.6692
   0
ARC
   8
LEVEL001
   6
CONTINUOUS
  62
7
  10
 121.652
  20
 271.331
  30
0.0
  40
 4.00000
  50
 22.7540
  51
 86.3309
   0
ARC
   8
LEVEL001
   6
CONTINUOUS
  62
7
  10
 123.913
  20
 269.142
  30
0.0
  40
 4.00001
  50
 28.1343
  51
 90.0000
   0
LINE
   8
LEVEL001
   6
CONTINUOUS
  62
7
  10
 127.440
  20
 271.029
  30
0.0
  11
 135.624
  21
 255.724
  31
0.0
   0
LINE
   8
LEVEL001
   6
CONTINUOUS
  62
7
  10
 142.759
  20
 210.858
  30
0.0
  11
 140.200
  21
 240.323
  31
0.0
   0
ARC
   8
LEVEL001
   6
CONTINUOUS
  62
7
  10
 100.350
  20
 236.862
  30
0.0
  40
 40.0001
  50
 4.96361
  51
 28.1341
   0
ARC
   8
LEVEL001
   6
CONTINUOUS
  62
7
  10
 111.270
  20
 238.903
  30
0.0
  40
 28.0001
  50
 20.0683
  51
 69.5771
   0
ARC
   8
LEVEL001
   6
CONTINUOUS
  62
7
  10
 100.350
  20
 236.862
  30
0.0
  40
 39.0001
  50
 9.09778
  51
 17.3775
   0
LINE
   8
LEVEL001
   6
CONTINUOUS
  62
7
  10
 141.275
  20
 227.942
  30
0.0
  11
 138.859
  21
 243.029
  31
0.0
   0
POLYLINE
   8
LEVEL001
   6
CONTINUOUS
  62
7
  66
1
  10
0.0
  20
0.0
  30
0.0
  70
0
   0
VERTEX
   8
LEVEL001
   6
CONTINUOUS
  62
7
  10
 57.1179
  20
 197.942
  30
0.0
   0
VERTEX
   8
LEVEL001
   6
CONTINUOUS
  62
7
  10
 49.9099
  20
 197.942
  30
0.0
   0
VERTEX
   8
LEVEL001
   6
CONTINUOUS
  62
7
  10
 49.9099
  20
 201.542
  30
0.0
   0
VERTEX
   8
LEVEL001
   6
CONTINUOUS
  62
7
  10
 48.7099
  20
 204.742
  30
0.0
   0
SEQEND
   0
POLYLINE
   8
LEVEL001
   6
CONTINUOUS
  62
7
  66
1
  10
0.0
  20
0.0
  30
0.0
  70
0
   0
VERTEX
   8
LEVEL001
   6
CONTINUOUS
  62
7
  10
 49.9099
  20
 201.202
  30
0.0
   0
VERTEX
   8
LEVEL001
   6
CONTINUOUS
  62
7
  10
 49.2299
  20
 201.143
  30
0.0
   0
VERTEX
   8
LEVEL001
   6
CONTINUOUS
  62
7
  10
 49.2299
  20
 197.942
  30
0.0
   0
VERTEX
   8
LEVEL001
   6
CONTINUOUS
  62
7
  10
 49.9099
  20
 197.882
  30
0.0
   0
SEQEND
   0
ARC
   8
LEVEL001
   6
CONTINUOUS
  62
7
  10
 53.0725
  20
 199.542
  30
0.0
  40
 4.16260
  50
 157.387
  51
 202.613
   0
POLYLINE
   8
LEVEL001
   6
DOT
  62
7
  66
1
  10
0.0
  20
0.0
  30
0.0
  70
0
   0
VERTEX
   8
LEVEL001
   6
DOT
  62
7
  10
 121.710
  20
 184.942
  30
0.0
   0
VERTEX
   8
LEVEL001
   6
DOT
  62
7
  10
 121.710
  20
 188.142
  30
0.0
   0
VERTEX
   8
LEVEL001
   6
DOT
  62
7
  10
 126.910
  20
 188.142
  30
0.0
   0
VERTEX
   8
LEVEL001
   6
DOT
  62
7
  10
 126.910
  20
 184.942
  30
0.0
   0
SEQEND
   0
POLYLINE
   8
LEVEL001
   6
CONTINUOUS
  62
7
  66
1
  10
0.0
  20
0.0
  30
0.0
  70
0
   0
VERTEX
   8
LEVEL001
   6
CONTINUOUS
  62
7
  10
 119.310
  20
 189.142
  30
0.0
   0
VERTEX
   8
LEVEL001
   6
CONTINUOUS
  62
7
  10
 119.310
  20
 184.942
  30
0.0
   0
VERTEX
   8
LEVEL001
   6
CONTINUOUS
  62
7
  10
 129.310
  20
 184.942
  30
0.0
   0
VERTEX
   8
LEVEL001
   6
CONTINUOUS
  62
7
  10
 129.310
  20
 189.142
  30
0.0
   0
SEQEND
   0
POLYLINE
   8
LEVEL001
   6
DOT
  62
7
  66
1
  10
0.0
  20
0.0
  30
0.0
  70
0
   0
VERTEX
   8
LEVEL001
   6
DOT
  62
7
  10
 119.310
  20
 189.142
  30
0.0
   0
VERTEX
   8
LEVEL001
   6
DOT
  62
7
  10
 119.310
  20
 189.942
  30
0.0
   0
VERTEX
   8
LEVEL001
   6
DOT
  62
7
  10
 129.310
  20
 189.942
  30
0.0
   0
VERTEX
   8
LEVEL001
   6
DOT
  62
7
  10
 129.310
  20
 189.142
  30
0.0
   0
SEQEND
   0
LINE
   8
LEVEL001
   6
CONTINUOUS
  62
7
  10
 123.913
  20
 273.142
  30
0.0
  11
 68.7099
  21
 273.142
  31
0.0
   0
ARC
   8
LEVEL001
   6
CONTINUOUS
  62
7
  10
 68.7099
  20
 269.142
  30
0.0
  40
 4.00000
  50
 90.0000
  51
 151.927
   0
ARC
   8
LEVEL001
   6
CONTINUOUS
  62
7
  10
 70.9676
  20
 271.331
  30
0.0
  40
 4.00000
  50
 93.6694
  51
 157.247
   0
ARC
   8
LEVEL001
   6
CONTINUOUS
  62
7
  10
 47.8284
  20
 208.123
  30
0.0
  40
 0.800000
  50
 104.997
  51
 177.999
   0
LINE
   8
LEVEL001
   6
CONTINUOUS
  62
7
  10
 48.3860
  20
 209.101
  30
0.0
  11
 47.6214
  21
 208.896
  31
0.0
   0
LINE
   8
LEVEL001
   6
CONTINUOUS
  62
7
  10
 47.0289
  20
 208.151
  30
0.0
  11
 46.9099
  21
 204.742
  31
0.0
   0
LINE
   8
LEVEL001
   6
CONTINUOUS
  62
7
  10
 47.3223
  20
 208.742
  30
0.0
  11
 96.3099
  21
 208.742
  31
0.0
   0
LINE
   8
LEVEL001
   6
CONTINUOUS
  62
7
  10
 57.7882
  20
 209.942
  30
0.0
  11
 53.3099
  21
 208.742
  31
0.0
   0
ARC
   8
LEVEL001
   6
CONTINUOUS
  62
7
  10
 54.3099
  20
 209.542
  30
0.0
  40
 0.400000
  50
0.0
  51
 89.9966
   0
LINE
   8
LEVEL001
   6
CONTINUOUS
  62
7
  10
 54.3099
  20
 209.942
  30
0.0
  11
 49.5099
  21
 209.942
  31
0.0
   0
ARC
   8
LEVEL001
   6
CONTINUOUS
  62
7
  10
 49.5099
  20
 209.542
  30
0.0
  40
 0.400000
  50
 89.9981
  51
 180.001
   0
LINE
   8
LEVEL001
   6
CONTINUOUS
  62
7
  10
 49.1099
  20
 209.542
  30
0.0
  11
 49.1099
  21
 208.742
  31
0.0
   0
ARC
   8
LEVEL001
   6
CONTINUOUS
  62
7
  10
 47.8683
  20
 211.032
  30
0.0
  40
 2.00000
  50
 326.417
  51
 355.001
   0
ARC
   8
LEVEL001
   6
CONTINUOUS
  62
7
  10
 47.8684
  20
 211.032
  30
0.0
  40
 2.00000
  50
 285.000
  51
 309.802
   0
LINE
   8
LEVEL001
   6
CONTINUOUS
  62
7
  10
 54.7099
  20
 209.118
  30
0.0
  11
 54.7099
  21
 209.542
  31
0.0
   0
LINE
   8
LEVEL001
   6
CONTINUOUS
  62
7
  10
 72.3099
  20
 273.142
  30
0.0
  11
 69.8068
  21
 244.532
  31
0.0
   0
POLYLINE
   8
LEVEL001
   6
CONTINUOUS
  62
7
  66
1
  10
0.0
  20
0.0
  30
0.0
  70
0
   0
VERTEX
   8
LEVEL001
   6
CONTINUOUS
  62
7
  10
 53.9099
  20
 209.942
  30
0.0
   0
VERTEX
   8
LEVEL001
   6
CONTINUOUS
  62
7
  10
 53.9099
  20
 210.342
  30
0.0
   0
VERTEX
   8
LEVEL001
   6
CONTINUOUS
  62
7
  10
 49.9099
  20
 210.342
  30
0.0
   0
VERTEX
   8
LEVEL001
   6
CONTINUOUS
  62
7
  10
 49.9099
  20
 209.942
  30
0.0
   0
SEQEND
   0
POLYLINE
   8
LEVEL001
   6
CONTINUOUS
  62
7
  66
1
  10
0.0
  20
0.0
  30
0.0
  70
0
   0
VERTEX
   8
LEVEL001
   6
CONTINUOUS
  62
7
  10
 53.7573
  20
 210.342
  30
0.0
   0
VERTEX
   8
LEVEL001
   6
CONTINUOUS
  62
7
  10
 53.7573
  20
 211.800
  30
0.0
   0
VERTEX
   8
LEVEL001
   6
CONTINUOUS
  62
7
  10
 53.5099
  20
 211.942
  30
0.0
   0
VERTEX
   8
LEVEL001
   6
CONTINUOUS
  62
7
  10
 50.3099
  20
 211.942
  30
0.0
   0
VERTEX
   8
LEVEL001
   6
CONTINUOUS
  62
7
  10
 50.0623
  20
 211.799
  30
0.0
   0
VERTEX
   8
LEVEL001
   6
CONTINUOUS
  62
7
  10
 50.0623
  20
 210.342
  30
0.0
   0
SEQEND
   0
POLYLINE
   8
LEVEL001
   6
CONTINUOUS
  62
7
  66
1
  10
0.0
  20
0.0
  30
0.0
  70
0
   0
VERTEX
   8
LEVEL001
   6
CONTINUOUS
  62
7
  10
 52.8337
  20
 211.799
  30
0.0
   0
VERTEX
   8
LEVEL001
   6
CONTINUOUS
  62
7
  10
 52.8265
  20
 211.817
  30
0.0
   0
VERTEX
   8
LEVEL001
   6
CONTINUOUS
  62
7
  10
 52.8049
  20
 211.835
  30
0.0
   0
VERTEX
   8
LEVEL001
   6
CONTINUOUS
  62
7
  10
 52.7695
  20
 211.852
  30
0.0
   0
VERTEX
   8
LEVEL001
   6
CONTINUOUS
  62
7
  10
 52.7206
  20
 211.868
  30
0.0
   0
VERTEX
   8
LEVEL001
   6
CONTINUOUS
  62
7
  10
 52.6590
  20
 211.883
  30
0.0
   0
VERTEX
   8
LEVEL001
   6
CONTINUOUS
  62
7
  10
 52.5858
  20
 211.897
  30
0.0
   0
VERTEX
   8
LEVEL001
   6
CONTINUOUS
  62
7
  10
 52.5020
  20
 211.909
  30
0.0
   0
VERTEX
   8
LEVEL001
   6
CONTINUOUS
  62
7
  10
 52.4090
  20
 211.920
  30
0.0
   0
VERTEX
   8
LEVEL001
   6
CONTINUOUS
  62
7
  10
 52.3082
  20
 211.928
  30
0.0
   0
VERTEX
   8
LEVEL001
   6
CONTINUOUS
  62
7
  10
 52.2012
  20
 211.935
  30
0.0
   0
VERTEX
   8
LEVEL001
   6
CONTINUOUS
  62
7
  10
 52.0896
  20
 211.940
  30
0.0
   0
VERTEX
   8
LEVEL001
   6
CONTINUOUS
  62
7
  10
 51.9752
  20
 211.942
  30
0.0
   0
VERTEX
   8
LEVEL001
   6
CONTINUOUS
  62
7
  10
 51.8598
  20
 211.942
  30
0.0
   0
VERTEX
   8
LEVEL001
   6
CONTINUOUS
  62
7
  10
 51.7452
  20
 211.940
  30
0.0
   0
VERTEX
   8
LEVEL001
   6
CONTINUOUS
  62
7
  10
 51.6332
  20
 211.936
  30
0.0
   0
VERTEX
   8
LEVEL001
   6
CONTINUOUS
  62
7
  10
 51.5255
  20
 211.929
  30
0.0
   0
VERTEX
   8
LEVEL001
   6
CONTINUOUS
  62
7
  10
 51.4237
  20
 211.921
  30
0.0
   0
VERTEX
   8
LEVEL001
   6
CONTINUOUS
  62
7
  10
 51.3296
  20
 211.911
  30
0.0
   0
VERTEX
   8
LEVEL001
   6
CONTINUOUS
  62
7
  10
 51.2445
  20
 211.899
  30
0.0
   0
VERTEX
   8
LEVEL001
   6
CONTINUOUS
  62
7
  10
 51.1698
  20
 211.885
  30
0.0
   0
VERTEX
   8
LEVEL001
   6
CONTINUOUS
  62
7
  10
 51.1066
  20
 211.870
  30
0.0
   0
VERTEX
   8
LEVEL001
   6
CONTINUOUS
  62
7
  10
 51.0560
  20
 211.854
  30
0.0
   0
VERTEX
   8
LEVEL001
   6
CONTINUOUS
  62
7
  10
 51.0187
  20
 211.837
  30
0.0
   0
VERTEX
   8
LEVEL001
   6
CONTINUOUS
  62
7
  10
 50.9953
  20
 211.820
  30
0.0
   0
VERTEX
   8
LEVEL001
   6
CONTINUOUS
  62
7
  10
 50.9862
  20
 211.802
  30
0.0
   0
VERTEX
   8
LEVEL001
   6
CONTINUOUS
  62
7
  10
 50.9861
  20
 211.799
  30
0.0
   0
SEQEND
   0
LINE
   8
LEVEL001
   6
CONTINUOUS
  62
7
  10
 52.8336
  20
 211.799
  30
0.0
  11
 52.8336
  21
 210.342
  31
0.0
   0
LINE
   8
LEVEL001
   6
CONTINUOUS
  62
7
  10
 50.9861
  20
 211.799
  30
0.0
  11
 50.9861
  21
 210.342
  31
0.0
   0
POLYLINE
   8
LEVEL001
   6
CONTINUOUS
  62
7
  66
1
  10
0.0
  20
0.0
  30
0.0
  70
0
   0
VERTEX
   8
LEVEL001
   6
CONTINUOUS
  62
7
  10
 53.5099
  20
 211.942
  30
0.0
   0
VERTEX
   8
LEVEL001
   6
CONTINUOUS
  62
7
  10
 53.4255
  20
 211.941
  30
0.0
   0
VERTEX
   8
LEVEL001
   6
CONTINUOUS
  62
7
  10
 53.3425
  20
 211.938
  30
0.0
   0
VERTEX
   8
LEVEL001
   6
CONTINUOUS
  62
7
  10
 53.2622
  20
 211.932
  30
0.0
   0
VERTEX
   8
LEVEL001
   6
CONTINUOUS
  62
7
  10
 53.1856
  20
 211.925
  30
0.0
   0
VERTEX
   8
LEVEL001
   6
CONTINUOUS
  62
7
  10
 53.1142
  20
 211.915
  30
0.0
   0
VERTEX
   8
LEVEL001
   6
CONTINUOUS
  62
7
  10
 53.0489
  20
 211.904
  30
0.0
   0
VERTEX
   8
LEVEL001
   6
CONTINUOUS
  62
7
  10
 52.9908
  20
 211.891
  30
0.0
   0
VERTEX
   8
LEVEL001
   6
CONTINUOUS
  62
7
  10
 52.9408
  20
 211.877
  30
0.0
   0
VERTEX
   8
LEVEL001
   6
CONTINUOUS
  62
7
  10
 52.8997
  20
 211.861
  30
0.0
   0
VERTEX
   8
LEVEL001
   6
CONTINUOUS
  62
7
  10
 52.8681
  20
 211.845
  30
0.0
   0
VERTEX
   8
LEVEL001
   6
CONTINUOUS
  62
7
  10
 52.8465
  20
 211.827
  30
0.0
   0
VERTEX
   8
LEVEL001
   6
CONTINUOUS
  62
7
  10
 52.8353
  20
 211.810
  30
0.0
   0
VERTEX
   8
LEVEL001
   6
CONTINUOUS
  62
7
  10
 52.8336
  20
 211.799
  30
0.0
   0
SEQEND
   0
POLYLINE
   8
LEVEL001
   6
CONTINUOUS
  62
7
  66
1
  10
0.0
  20
0.0
  30
0.0
  70
0
   0
VERTEX
   8
LEVEL001
   6
CONTINUOUS
  62
7
  10
 50.9861
  20
 211.799
  30
0.0
   0
VERTEX
   8
LEVEL001
   6
CONTINUOUS
  62
7
  10
 50.9809
  20
 211.817
  30
0.0
   0
VERTEX
   8
LEVEL001
   6
CONTINUOUS
  62
7
  10
 50.9651
  20
 211.835
  30
0.0
   0
VERTEX
   8
LEVEL001
   6
CONTINUOUS
  62
7
  10
 50.9391
  20
 211.852
  30
0.0
   0
VERTEX
   8
LEVEL001
   6
CONTINUOUS
  62
7
  10
 50.9033
  20
 211.868
  30
0.0
   0
VERTEX
   8
LEVEL001
   6
CONTINUOUS
  62
7
  10
 50.8583
  20
 211.883
  30
0.0
   0
VERTEX
   8
LEVEL001
   6
CONTINUOUS
  62
7
  10
 50.8047
  20
 211.897
  30
0.0
   0
VERTEX
   8
LEVEL001
   6
CONTINUOUS
  62
7
  10
 50.7434
  20
 211.909
  30
0.0
   0
VERTEX
   8
LEVEL001
   6
CONTINUOUS
  62
7
  10
 50.6753
  20
 211.920
  30
0.0
   0
VERTEX
   8
LEVEL001
   6
CONTINUOUS
  62
7
  10
 50.6015
  20
 211.928
  30
0.0
   0
VERTEX
   8
LEVEL001
   6
CONTINUOUS
  62
7
  10
 50.5231
  20
 211.935
  30
0.0
   0
VERTEX
   8
LEVEL001
   6
CONTINUOUS
  62
7
  10
 50.4414
  20
 211.940
  30
0.0
   0
VERTEX
   8
LEVEL001
   6
CONTINUOUS
  62
7
  10
 50.3577
  20
 211.942
  30
0.0
   0
VERTEX
   8
LEVEL001
   6
CONTINUOUS
  62
7
  10
 50.3099
  20
 211.942
  30
0.0
   0
SEQEND
   0
LINE
   8
LEVEL001
   6
CONTINUOUS
  62
7
  10
 65.1795
  20
 271.029
  30
0.0
  11
 56.9959
  21
 255.724
  31
0.0
   0
LINE
   8
LEVEL001
   6
CONTINUOUS
  62
7
  10
 49.8607
  20
 210.858
  30
0.0
  11
 52.4198
  21
 240.323
  31
0.0
   0
ARC
   8
LEVEL001
   6
CONTINUOUS
  62
7
  10
 92.2699
  20
 236.862
  30
0.0
  40
 40.0001
  50
 151.866
  51
 175.036
   0
ARC
   8
LEVEL001
   6
CONTINUOUS
  62
7
  10
 81.3498
  20
 238.903
  30
0.0
  40
 28.0001
  50
 110.423
  51
 159.932
   0
ARC
   8
LEVEL001
   6
CONTINUOUS
  62
7
  10
 92.2699
  20
 236.862
  30
0.0
  40
 39.0001
  50
 162.622
  51
 170.902
   0
LINE
   8
LEVEL001
   6
CONTINUOUS
  62
7
  10
 51.3445
  20
 227.942
  30
0.0
  11
 53.7604
  21
 243.029
  31
0.0
   0
LINE
   8
LEVEL001
   6
CONTINUOUS
  62
7
  10
 54.7099
  20
 204.742
  30
0.0
  11
 54.7099
  21
 202.342
  31
0.0
   0
ARC
   8
LEVEL001
   6
CONTINUOUS
  62
7
  10
 54.3099
  20
 202.342
  30
0.0
  40
 0.400000
  50
 270.003
  51
0.0
   0
LINE
   8
LEVEL001
   6
CONTINUOUS
  62
7
  10
 54.3099
  20
 201.942
  30
0.0
  11
 49.5099
  21
 201.942
  31
0.0
   0
ARC
   8
LEVEL001
   6
CONTINUOUS
  62
7
  10
 49.5099
  20
 202.342
  30
0.0
  40
 0.400000
  50
 180.001
  51
 270.002
   0
LINE
   8
LEVEL001
   6
CONTINUOUS
  62
7
  10
 60.0699
  20
 196.742
  30
0.0
  11
 54.5899
  21
 201.942
  31
0.0
   0
LINE
   8
LEVEL001
   6
CONTINUOUS
  62
7
  10
 53.1499
  20
 201.942
  30
0.0
  11
 58.6299
  21
 196.742
  31
0.0
   0
ARC
   8
LEVEL001
   6
CONTINUOUS
  62
7
  10
 58.3424
  20
 204.342
  30
0.0
  40
 0.400000
  50
 3.00128
  51
 90.0018
   0
LINE
   8
LEVEL001
   6
CONTINUOUS
  62
7
  10
 58.9702
  20
 200.007
  30
0.0
  11
 58.7419
  21
 204.363
  31
0.0
   0
ARC
   8
LEVEL001
   6
CONTINUOUS
  62
7
  10
 67.2442
  20
 204.342
  30
0.0
  40
 0.400000
  50
 2.00102
  51
 89.9896
   0
LINE
   8
LEVEL001
   6
CONTINUOUS
  62
7
  10
 67.9099
  20
 196.742
  30
0.0
  11
 67.6440
  21
 204.356
  31
0.0
   0
ARC
   8
LEVEL001
   6
CONTINUOUS
  62
7
  10
 69.3754
  20
 204.342
  30
0.0
  40
 0.400000
  50
 89.9894
  51
 178.000
   0
LINE
   8
LEVEL001
   6
CONTINUOUS
  62
7
  10
 68.9757
  20
 204.356
  30
0.0
  11
 68.7099
  21
 196.742
  31
0.0
   0
ARC
   8
LEVEL001
   6
CONTINUOUS
  62
7
  10
 95.2442
  20
 204.342
  30
0.0
  40
 0.400000
  50
 2.00102
  51
 89.9922
   0
LINE
   8
LEVEL001
   6
CONTINUOUS
  62
7
  10
 95.9099
  20
 196.742
  30
0.0
  11
 95.6440
  21
 204.356
  31
0.0
   0
LINE
   8
LEVEL001
   6
CONTINUOUS
  62
7
  10
 96.3099
  20
 204.742
  30
0.0
  11
 46.9099
  21
 204.742
  31
0.0
   0
LINE
   8
LEVEL001
   6
CONTINUOUS
  62
7
  10
 49.1099
  20
 202.342
  30
0.0
  11
 49.1099
  21
 204.742
  31
0.0
   0
LINE
   8
LEVEL001
   6
CONTINUOUS
  62
7
  10
 60.0699
  20
 196.742
  30
0.0
  11
 58.6299
  21
 196.742
  31
0.0
   0
ARC
   8
LEVEL001
   6
CONTINUOUS
  62
7
  10
 63.0509
  20
 200.342
  30
0.0
  40
 6.40000
  50
 198.571
  51
 270.000
   0
LINE
   8
LEVEL001
   6
CONTINUOUS
  62
7
  10
 68.7099
  20
 196.742
  30
0.0
  11
 67.9099
  21
 196.742
  31
0.0
   0
ARC
   8
LEVEL001
   6
CONTINUOUS
  62
7
  10
 65.3614
  20
 200.342
  30
0.0
  40
 6.40000
  50
 183.000
  51
 214.228
   0
LINE
   8
LEVEL001
   6
CONTINUOUS
  62
7
  10
 96.3099
  20
 196.742
  30
0.0
  11
 95.9099
  21
 196.742
  31
0.0
   0
ARC
   8
LEVEL001
   6
CONTINUOUS
  62
7
  10
 60.4578
  20
 193.626
  30
0.0
  40
 0.800000
  50
 16.3856
  51
 68.8921
   0
LINE
   8
LEVEL001
   6
CONTINUOUS
  62
7
  10
 62.6099
  20
 189.142
  30
0.0
  11
 61.2253
  21
 193.851
  31
0.0
   0
LINE
   8
LEVEL001
   6
CONTINUOUS
  62
7
  10
 74.0099
  20
 189.142
  30
0.0
  11
 62.6099
  21
 189.142
  31
0.0
   0
POLYLINE
   8
LEVEL001
   6
DOT
  62
7
  66
1
  10
0.0
  20
0.0
  30
0.0
  70
0
   0
VERTEX
   8
LEVEL001
   6
DOT
  62
7
  10
 70.9099
  20
 184.942
  30
0.0
   0
VERTEX
   8
LEVEL001
   6
DOT
  62
7
  10
 70.9099
  20
 188.142
  30
0.0
   0
VERTEX
   8
LEVEL001
   6
DOT
  62
7
  10
 65.7099
  20
 188.142
  30
0.0
   0
VERTEX
   8
LEVEL001
   6
DOT
  62
7
  10
 65.7099
  20
 184.942
  30
0.0
   0
SEQEND
   0
POLYLINE
   8
LEVEL001
   6
CONTINUOUS
  62
7
  66
1
  10
0.0
  20
0.0
  30
0.0
  70
0
   0
VERTEX
   8
LEVEL001
   6
CONTINUOUS
  62
7
  10
 73.3099
  20
 189.142
  30
0.0
   0
VERTEX
   8
LEVEL001
   6
CONTINUOUS
  62
7
  10
 73.3099
  20
 184.942
  30
0.0
   0
VERTEX
   8
LEVEL001
   6
CONTINUOUS
  62
7
  10
 63.3099
  20
 184.942
  30
0.0
   0
VERTEX
   8
LEVEL001
   6
CONTINUOUS
  62
7
  10
 63.3099
  20
 189.142
  30
0.0
   0
SEQEND
   0
POLYLINE
   8
LEVEL001
   6
DOT
  62
7
  66
1
  10
0.0
  20
0.0
  30
0.0
  70
0
   0
VERTEX
   8
LEVEL001
   6
DOT
  62
7
  10
 73.3099
  20
 189.142
  30
0.0
   0
VERTEX
   8
LEVEL001
   6
DOT
  62
7
  10
 73.3099
  20
 189.942
  30
0.0
   0
VERTEX
   8
LEVEL001
   6
DOT
  62
7
  10
 63.3099
  20
 189.942
  30
0.0
   0
VERTEX
   8
LEVEL001
   6
DOT
  62
7
  10
 63.3099
  20
 189.142
  30
0.0
   0
SEQEND
   0
ARC
   8
LEVEL001
   6
CONTINUOUS
  62
7
  10
 76.0981
  20
 193.142
  30
0.0
  40
 0.800000
  50
 89.9996
  51
 162.646
   0
LINE
   8
LEVEL001
   6
CONTINUOUS
  62
7
  10
 75.3345
  20
 193.381
  30
0.0
  11
 74.0099
  21
 189.142
  31
0.0
   0
LINE
   8
LEVEL001
   6
DASHDOT
  62
1
  10
 158.502
  20
 200.142
  30
0.0
  11
 143.645
  21
 200.142
  31
0.0
   0
ARC
   8
LEVEL001
   6
CONTINUOUS
  62
7
  10
 55.2980
  20
 63.1387
  30
0.0
  40
 0.800000
  50
 90.0009
  51
 162.646
   0
LINE
   8
LEVEL001
   6
CONTINUOUS
  62
7
  10
 54.5344
  20
 63.3773
  30
0.0
  11
 53.2099
  21
 59.1387
  31
0.0
   0
LINE
   8
LEVEL001
   6
CONTINUOUS
  62
7
  10
 53.2099
  20
 59.1387
  30
0.0
  11
 41.8099
  21
 59.1387
  31
0.0
   0
LINE
   8
LEVEL001
   6
CONTINUOUS
  62
7
  10
 41.8099
  20
 59.1387
  30
0.0
  11
 40.4591
  21
 63.4301
  31
0.0
   0
ARC
   8
LEVEL001
   6
CONTINUOUS
  62
7
  10
 39.6960
  20
 63.1899
  30
0.0
  40
 0.800000
  50
 17.4731
  51
 79.1215
   0
CIRCLE
   8
LEVEL001
   6
CONTINUOUS
  62
7
  10
 81.1099
  20
 70.1387
  30
0.0
  40
 5.40000
   0
CIRCLE
   8
LEVEL001
   6
CONTINUOUS
  62
7
  10
 81.1099
  20
 70.1387
  30
0.0
  40
 3.80000
   0
ARC
   8
LEVEL001
   6
CONTINUOUS
  62
7
  10
 81.1099
  20
 70.1387
  30
0.0
  40
 6.20000
  50
 180.000
  51
0.0
   0
ARC
   8
LEVEL001
   6
CONTINUOUS
  62
7
  10
 87.7099
  20
 74.3387
  30
0.0
  40
 0.400000
  50
 90.0007
  51
 179.999
   0
LINE
   8
LEVEL001
   6
CONTINUOUS
  62
7
  10
 87.3099
  20
 74.3387
  30
0.0
  11
 87.3099
  21
 70.1387
  31
0.0
   0
ARC
   8
LEVEL001
   6
CONTINUOUS
  62
7
  10
 74.5099
  20
 74.3387
  30
0.0
  40
 0.400000
  50
 0.732535E-3
  51
 89.9993
   0
LINE
   8
LEVEL001
   6
CONTINUOUS
  62
7
  10
 74.9099
  20
 74.3387
  30
0.0
  11
 74.9099
  21
 70.1387
  31
0.0
   0
LINE
   8
LEVEL001
   6
CONTINUOUS
  62
7
  10
 35.7111
  20
 66.7387
  30
0.0
  11
 30.3803
  21
 71.9387
  31
0.0
   0
ARC
   8
LEVEL001
   6
CONTINUOUS
  62
7
  10
 27.5099
  20
 72.3387
  30
0.0
  40
 0.400000
  50
 180.001
  51
 270.001
   0
LINE
   8
LEVEL001
   6
CONTINUOUS
  62
7
  10
 27.5099
  20
 71.9387
  30
0.0
  11
 32.3099
  21
 71.9387
  31
0.0
   0
ARC
   8
LEVEL001
   6
CONTINUOUS
  62
7
  10
 32.3099
  20
 72.3387
  30
0.0
  40
 0.400000
  50
 270.001
  51
0.0
   0
ARC
   8
LEVEL001
   6
CONTINUOUS
  62
7
  10
 33.1099
  20
 74.3387
  30
0.0
  40
 0.400000
  50
 89.9994
  51
 179.999
   0
LINE
   8
LEVEL001
   6
CONTINUOUS
  62
7
  10
 32.7099
  20
 72.3387
  30
0.0
  11
 32.7099
  21
 74.3387
  31
0.0
   0
ARC
   8
LEVEL001
   6
CONTINUOUS
  62
7
  10
 26.7099
  20
 74.3387
  30
0.0
  40
 0.400000
  50
 0.732535E-3
  51
 89.9993
   0
LINE
   8
LEVEL001
   6
CONTINUOUS
  62
7
  10
 27.1099
  20
 74.3387
  30
0.0
  11
 27.1099
  21
 72.3387
  31
0.0
   0
LINE
   8
LEVEL001
   6
CONTINUOUS
  62
7
  10
 32.5899
  20
 71.9387
  30
0.0
  11
 38.0699
  21
 66.7387
  31
0.0
   0
LINE
   8
LEVEL001
   6
CONTINUOUS
  62
7
  10
 36.6299
  20
 66.7387
  30
0.0
  11
 31.1499
  21
 71.9387
  31
0.0
   0
LINE
   8
LEVEL001
   6
CONTINUOUS
  62
7
  10
 36.7419
  20
 74.3596
  30
0.0
  11
 36.9702
  21
 70.0037
  31
0.0
   0
ARC
   8
LEVEL001
   6
CONTINUOUS
  62
7
  10
 36.3424
  20
 74.3387
  30
0.0
  40
 0.400000
  50
 3.00128
  51
 89.9939
   0
ARC
   8
LEVEL001
   6
CONTINUOUS
  62
7
  10
 43.3614
  20
 70.3386
  30
0.0
  40
 6.40000
  50
 183.000
  51
 214.229
   0
ARC
   8
LEVEL001
   6
CONTINUOUS
  62
7
  10
 41.0507
  20
 70.3387
  30
0.0
  40
 6.40000
  50
 198.569
  51
 270.000
   0
LINE
   8
LEVEL001
   6
CONTINUOUS
  62
7
  10
 36.6299
  20
 66.7387
  30
0.0
  11
 38.0699
  21
 66.7387
  31
0.0
   0
LINE
   8
LEVEL001
   6
CONTINUOUS
  62
7
  10
 44.7099
  20
 66.7387
  30
0.0
  11
 45.5099
  21
 66.7387
  31
0.0
   0
ARC
   8
LEVEL001
   6
CONTINUOUS
  62
7
  10
 44.0443
  20
 74.3387
  30
0.0
  40
 0.400000
  50
 2.00102
  51
 90.0040
   0
ARC
   8
LEVEL001
   6
CONTINUOUS
  62
7
  10
 46.1755
  20
 74.3387
  30
0.0
  40
 0.400000
  50
 89.9999
  51
 178.000
   0
LINE
   8
LEVEL001
   6
CONTINUOUS
  62
7
  10
 44.4440
  20
 74.3526
  30
0.0
  11
 44.7099
  21
 66.7387
  31
0.0
   0
LINE
   8
LEVEL001
   6
CONTINUOUS
  62
7
  10
 45.5099
  20
 66.7387
  30
0.0
  11
 45.7758
  21
 74.3526
  31
0.0
   0
ARC
   8
LEVEL001
   6
CONTINUOUS
  62
7
  10
 25.4683
  20
 81.0272
  30
0.0
  40
 2.00000
  50
 288.182
  51
 355.000
   0
ARC
   8
LEVEL001
   6
CONTINUOUS
  62
7
  10
 25.7099
  20
 78.1594
  30
0.0
  40
 0.800000
  50
 108.182
  51
 179.999
   0
LINE
   8
LEVEL001
   6
CONTINUOUS
  62
7
  10
 26.0924
  20
 79.1270
  30
0.0
  11
 25.4603
  21
 78.9194
  31
0.0
   0
LINE
   8
LEVEL001
   6
CONTINUOUS
  62
7
  10
 24.9099
  20
 74.7387
  30
0.0
  11
 24.9099
  21
 78.1594
  31
0.0
   0
LINE
   8
LEVEL001
   6
CONTINUOUS
  62
7
  10
 24.9099
  20
 74.7387
  30
0.0
  11
 77.5772
  21
 74.7387
  31
0.0
   0
ARC
   8
LEVEL001
   6
CONTINUOUS
  62
7
  10
 81.1099
  20
 70.1387
  30
0.0
  40
 5.80000
  50
 52.4763
  51
 127.524
   0
LINE
   8
LEVEL001
   6
CONTINUOUS
  62
7
  10
 27.1099
  20
 78.7387
  30
0.0
  11
 27.1099
  21
 79.5387
  31
0.0
   0
ARC
   8
LEVEL001
   6
CONTINUOUS
  62
7
  10
 27.5099
  20
 79.5387
  30
0.0
  40
 0.400000
  50
 89.9994
  51
 180.001
   0
LINE
   8
LEVEL001
   6
CONTINUOUS
  62
7
  10
 27.5099
  20
 79.9387
  30
0.0
  11
 32.3099
  21
 79.9387
  31
0.0
   0
ARC
   8
LEVEL001
   6
CONTINUOUS
  62
7
  10
 32.3099
  20
 79.5387
  30
0.0
  40
 0.400000
  50
0.0
  51
 89.9993
   0
LINE
   8
LEVEL001
   6
CONTINUOUS
  62
7
  10
 34.9634
  20
 79.9387
  30
0.0
  11
 31.3099
  21
 78.7387
  31
0.0
   0
LINE
   8
LEVEL001
   6
CONTINUOUS
  62
7
  10
 32.7099
  20
 79.5387
  30
0.0
  11
 32.7099
  21
 79.1985
  31
0.0
   0
POLYLINE
   8
LEVEL001
   6
CONTINUOUS
  62
7
  66
1
  10
0.0
  20
0.0
  30
0.0
  70
0
   0
VERTEX
   8
LEVEL001
   6
CONTINUOUS
  62
7
  10
 27.9099
  20
 79.9387
  30
0.0
   0
VERTEX
   8
LEVEL001
   6
CONTINUOUS
  62
7
  10
 27.9099
  20
 80.3387
  30
0.0
   0
VERTEX
   8
LEVEL001
   6
CONTINUOUS
  62
7
  10
 31.9099
  20
 80.3387
  30
0.0
   0
VERTEX
   8
LEVEL001
   6
CONTINUOUS
  62
7
  10
 31.9099
  20
 79.9387
  30
0.0
   0
SEQEND
   0
POLYLINE
   8
LEVEL001
   6
CONTINUOUS
  62
7
  66
1
  10
0.0
  20
0.0
  30
0.0
  70
0
   0
VERTEX
   8
LEVEL001
   6
CONTINUOUS
  62
7
  10
 28.0624
  20
 80.3387
  30
0.0
   0
VERTEX
   8
LEVEL001
   6
CONTINUOUS
  62
7
  10
 28.0624
  20
 81.7958
  30
0.0
   0
VERTEX
   8
LEVEL001
   6
CONTINUOUS
  62
7
  10
 28.3099
  20
 81.9387
  30
0.0
   0
VERTEX
   8
LEVEL001
   6
CONTINUOUS
  62
7
  10
 31.5099
  20
 81.9387
  30
0.0
   0
VERTEX
   8
LEVEL001
   6
CONTINUOUS
  62
7
  10
 31.7574
  20
 81.7957
  30
0.0
   0
VERTEX
   8
LEVEL001
   6
CONTINUOUS
  62
7
  10
 31.7574
  20
 80.3387
  30
0.0
   0
SEQEND
   0
POLYLINE
   8
LEVEL001
   6
CONTINUOUS
  62
7
  66
1
  10
0.0
  20
0.0
  30
0.0
  70
0
   0
VERTEX
   8
LEVEL001
   6
CONTINUOUS
  62
7
  10
 30.8337
  20
 81.7957
  30
0.0
   0
VERTEX
   8
LEVEL001
   6
CONTINUOUS
  62
7
  10
 30.8265
  20
 81.8136
  30
0.0
   0
VERTEX
   8
LEVEL001
   6
CONTINUOUS
  62
7
  10
 30.8049
  20
 81.8311
  30
0.0
   0
VERTEX
   8
LEVEL001
   6
CONTINUOUS
  62
7
  10
 30.7695
  20
 81.8481
  30
0.0
   0
VERTEX
   8
LEVEL001
   6
CONTINUOUS
  62
7
  10
 30.7206
  20
 81.8643
  30
0.0
   0
VERTEX
   8
LEVEL001
   6
CONTINUOUS
  62
7
  10
 30.6590
  20
 81.8794
  30
0.0
   0
VERTEX
   8
LEVEL001
   6
CONTINUOUS
  62
7
  10
 30.5858
  20
 81.8932
  30
0.0
   0
VERTEX
   8
LEVEL001
   6
CONTINUOUS
  62
7
  10
 30.5020
  20
 81.9054
  30
0.0
   0
VERTEX
   8
LEVEL001
   6
CONTINUOUS
  62
7
  10
 30.4090
  20
 81.9160
  30
0.0
   0
VERTEX
   8
LEVEL001
   6
CONTINUOUS
  62
7
  10
 30.3082
  20
 81.9247
  30
0.0
   0
VERTEX
   8
LEVEL001
   6
CONTINUOUS
  62
7
  10
 30.2012
  20
 81.9314
  30
0.0
   0
VERTEX
   8
LEVEL001
   6
CONTINUOUS
  62
7
  10
 30.0896
  20
 81.9359
  30
0.0
   0
VERTEX
   8
LEVEL001
   6
CONTINUOUS
  62
7
  10
 29.9752
  20
 81.9383
  30
0.0
   0
VERTEX
   8
LEVEL001
   6
CONTINUOUS
  62
7
  10
 29.8598
  20
 81.9385
  30
0.0
   0
VERTEX
   8
LEVEL001
   6
CONTINUOUS
  62
7
  10
 29.7452
  20
 81.9364
  30
0.0
   0
VERTEX
   8
LEVEL001
   6
CONTINUOUS
  62
7
  10
 29.6332
  20
 81.9321
  30
0.0
   0
VERTEX
   8
LEVEL001
   6
CONTINUOUS
  62
7
  10
 29.5255
  20
 81.9257
  30
0.0
   0
VERTEX
   8
LEVEL001
   6
CONTINUOUS
  62
7
  10
 29.4237
  20
 81.9173
  30
0.0
   0
VERTEX
   8
LEVEL001
   6
CONTINUOUS
  62
7
  10
 29.3296
  20
 81.9069
  30
0.0
   0
VERTEX
   8
LEVEL001
   6
CONTINUOUS
  62
7
  10
 29.2445
  20
 81.8949
  30
0.0
   0
VERTEX
   8
LEVEL001
   6
CONTINUOUS
  62
7
  10
 29.1698
  20
 81.8813
  30
0.0
   0
VERTEX
   8
LEVEL001
   6
CONTINUOUS
  62
7
  10
 29.1067
  20
 81.8663
  30
0.0
   0
VERTEX
   8
LEVEL001
   6
CONTINUOUS
  62
7
  10
 29.0560
  20
 81.8503
  30
0.0
   0
VERTEX
   8
LEVEL001
   6
CONTINUOUS
  62
7
  10
 29.0187
  20
 81.8334
  30
0.0
   0
VERTEX
   8
LEVEL001
   6
CONTINUOUS
  62
7
  10
 28.9953
  20
 81.8159
  30
0.0
   0
VERTEX
   8
LEVEL001
   6
CONTINUOUS
  62
7
  10
 28.9862
  20
 81.7981
  30
0.0
   0
VERTEX
   8
LEVEL001
   6
CONTINUOUS
  62
7
  10
 28.9861
  20
 81.7957
  30
0.0
   0
SEQEND
   0
LINE
   8
LEVEL001
   6
CONTINUOUS
  62
7
  10
 28.9862
  20
 81.7957
  30
0.0
  11
 28.9862
  21
 80.3387
  31
0.0
   0
LINE
   8
LEVEL001
   6
CONTINUOUS
  62
7
  10
 30.8337
  20
 81.7957
  30
0.0
  11
 30.8337
  21
 80.3387
  31
0.0
   0
POLYLINE
   8
LEVEL001
   6
CONTINUOUS
  62
7
  66
1
  10
0.0
  20
0.0
  30
0.0
  70
0
   0
VERTEX
   8
LEVEL001
   6
CONTINUOUS
  62
7
  10
 28.9862
  20
 81.7957
  30
0.0
   0
VERTEX
   8
LEVEL001
   6
CONTINUOUS
  62
7
  10
 28.9809
  20
 81.8136
  30
0.0
   0
VERTEX
   8
LEVEL001
   6
CONTINUOUS
  62
7
  10
 28.9651
  20
 81.8311
  30
0.0
   0
VERTEX
   8
LEVEL001
   6
CONTINUOUS
  62
7
  10
 28.9392
  20
 81.8481
  30
0.0
   0
VERTEX
   8
LEVEL001
   6
CONTINUOUS
  62
7
  10
 28.9034
  20
 81.8643
  30
0.0
   0
VERTEX
   8
LEVEL001
   6
CONTINUOUS
  62
7
  10
 28.8583
  20
 81.8794
  30
0.0
   0
VERTEX
   8
LEVEL001
   6
CONTINUOUS
  62
7
  10
 28.8047
  20
 81.8932
  30
0.0
   0
VERTEX
   8
LEVEL001
   6
CONTINUOUS
  62
7
  10
 28.7434
  20
 81.9054
  30
0.0
   0
VERTEX
   8
LEVEL001
   6
CONTINUOUS
  62
7
  10
 28.6753
  20
 81.9160
  30
0.0
   0
VERTEX
   8
LEVEL001
   6
CONTINUOUS
  62
7
  10
 28.6015
  20
 81.9247
  30
0.0
   0
VERTEX
   8
LEVEL001
   6
CONTINUOUS
  62
7
  10
 28.5231
  20
 81.9314
  30
0.0
   0
VERTEX
   8
LEVEL001
   6
CONTINUOUS
  62
7
  10
 28.4415
  20
 81.9359
  30
0.0
   0
VERTEX
   8
LEVEL001
   6
CONTINUOUS
  62
7
  10
 28.3577
  20
 81.9383
  30
0.0
   0
VERTEX
   8
LEVEL001
   6
CONTINUOUS
  62
7
  10
 28.3099
  20
 81.9387
  30
0.0
   0
SEQEND
   0
POLYLINE
   8
LEVEL001
   6
CONTINUOUS
  62
7
  66
1
  10
0.0
  20
0.0
  30
0.0
  70
0
   0
VERTEX
   8
LEVEL001
   6
CONTINUOUS
  62
7
  10
 31.5099
  20
 81.9387
  30
0.0
   0
VERTEX
   8
LEVEL001
   6
CONTINUOUS
  62
7
  10
 31.4256
  20
 81.9375
  30
0.0
   0
VERTEX
   8
LEVEL001
   6
CONTINUOUS
  62
7
  10
 31.3426
  20
 81.9342
  30
0.0
   0
VERTEX
   8
LEVEL001
   6
CONTINUOUS
  62
7
  10
 31.2622
  20
 81.9287
  30
0.0
   0
VERTEX
   8
LEVEL001
   6
CONTINUOUS
  62
7
  10
 31.1857
  20
 81.9212
  30
0.0
   0
VERTEX
   8
LEVEL001
   6
CONTINUOUS
  62
7
  10
 31.1142
  20
 81.9116
  30
0.0
   0
VERTEX
   8
LEVEL001
   6
CONTINUOUS
  62
7
  10
 31.0489
  20
 81.9003
  30
0.0
   0
VERTEX
   8
LEVEL001
   6
CONTINUOUS
  62
7
  10
 30.9908
  20
 81.8874
  30
0.0
   0
VERTEX
   8
LEVEL001
   6
CONTINUOUS
  62
7
  10
 30.9408
  20
 81.8730
  30
0.0
   0
VERTEX
   8
LEVEL001
   6
CONTINUOUS
  62
7
  10
 30.8997
  20
 81.8574
  30
0.0
   0
VERTEX
   8
LEVEL001
   6
CONTINUOUS
  62
7
  10
 30.8681
  20
 81.8408
  30
0.0
   0
VERTEX
   8
LEVEL001
   6
CONTINUOUS
  62
7
  10
 30.8465
  20
 81.8235
  30
0.0
   0
VERTEX
   8
LEVEL001
   6
CONTINUOUS
  62
7
  10
 30.8353
  20
 81.8059
  30
0.0
   0
VERTEX
   8
LEVEL001
   6
CONTINUOUS
  62
7
  10
 30.8336
  20
 81.7957
  30
0.0
   0
SEQEND
   0
LINE
   8
LEVEL001
   6
CONTINUOUS
  62
7
  10
 25.1581
  20
 78.7387
  30
0.0
  11
 96.3099
  21
 78.7387
  31
0.0
   0
ARC
   8
LEVEL001
   6
CONTINUOUS
  62
7
  10
 95.8623
  20
 69.1387
  30
0.0
  40
 0.400001
  50
 90.0001
  51
 169.836
   0
ARC
   8
LEVEL001
   6
CONTINUOUS
  62
7
  10
 89.1690
  20
 70.3387
  30
0.0
  40
 6.40000
  50
 270.000
  51
 349.836
   0
ARC
   8
LEVEL001
   6
CONTINUOUS
  62
7
  10
 44.0236
  20
 142.739
  30
0.0
  40
 0.400000
  50
 2.00234
  51
 90.0002
   0
LINE
   8
LEVEL001
   6
CONTINUOUS
  62
7
  10
 61.1099
  20
 129.939
  30
0.0
  11
 79.5099
  21
 129.939
  31
0.0
   0
LINE
   8
LEVEL001
   6
CONTINUOUS
  62
7
  10
 80.3099
  20
 132.819
  30
0.0
  11
 80.3099
  21
 126.739
  31
0.0
   0
ARC
   8
LEVEL001
   6
CONTINUOUS
  62
7
  10
 79.5099
  20
 126.739
  30
0.0
  40
 0.800000
  50
 269.999
  51
0.0
   0
LINE
   8
LEVEL001
   6
CONTINUOUS
  62
7
  10
 79.5099
  20
 125.939
  30
0.0
  11
 61.1099
  21
 125.939
  31
0.0
   0
ARC
   8
LEVEL001
   6
CONTINUOUS
  62
7
  10
 61.1099
  20
 126.739
  30
0.0
  40
 0.800000
  50
 180.000
  51
 269.999
   0
LINE
   8
LEVEL001
   6
CONTINUOUS
  62
7
  10
 60.3099
  20
 126.739
  30
0.0
  11
 60.3099
  21
 132.819
  31
0.0
   0
ARC
   8
LEVEL001
   6
CONTINUOUS
  62
7
  10
 60.2927
  20
 129.932
  30
0.0
  40
 0.800000
  50
 348.691
  51
 12.2656
   0
ARC
   8
LEVEL001
   6
CONTINUOUS
  62
7
  10
 80.3271
  20
 129.932
  30
0.0
  40
 0.800000
  50
 167.737
  51
 191.313
   0
LINE
   8
LEVEL001
   6
CONTINUOUS
  62
7
  10
 61.0772
  20
 129.775
  30
0.0
  11
 60.3972
  21
 126.375
  31
0.0
   0
LINE
   8
LEVEL001
   6
CONTINUOUS
  62
7
  10
 79.5427
  20
 129.775
  30
0.0
  11
 80.2226
  21
 126.375
  31
0.0
   0
ARC
   8
LEVEL001
   6
CONTINUOUS
  62
7
  10
 45.3780
  20
 138.339
  30
0.0
  40
 0.800000
  50
 182.002
  51
 240.641
   0
LINE
   8
LEVEL001
   6
CONTINUOUS
  62
7
  10
 60.4577
  20
 132.939
  30
0.0
  11
 61.0744
  21
 130.102
  31
0.0
   0
LINE
   8
LEVEL001
   6
CONTINUOUS
  62
7
  10
 80.1620
  20
 132.939
  30
0.0
  11
 79.5454
  21
 130.102
  31
0.0
   0
LINE
   8
LEVEL001
   6
CONTINUOUS
  62
7
  10
 44.9260
  20
 133.939
  30
0.0
  11
 95.6937
  21
 133.939
  31
0.0
   0
LINE
   8
LEVEL001
   6
CONTINUOUS
  62
7
  10
 95.7099
  20
 132.939
  30
0.0
  11
 44.9099
  21
 132.939
  31
0.0
   0
ARC
   8
LEVEL001
   6
CONTINUOUS
  62
7
  10
 45.7010
  20
 144.780
  30
0.0
  40
 0.600000
  50
 93.5285
  51
 179.079
   0
LINE
   8
LEVEL001
   6
CONTINUOUS
  62
7
  10
 44.9099
  20
 132.939
  30
0.0
  11
 45.1010
  21
 144.789
  31
0.0
   0
ARC
   8
LEVEL001
   6
CONTINUOUS
  62
7
  10
 94.9188
  20
 144.780
  30
0.0
  40
 0.600000
  50
 0.922595
  51
 86.4663
   0
LINE
   8
LEVEL001
   6
CONTINUOUS
  62
7
  10
 95.5187
  20
 144.789
  30
0.0
  11
 95.7099
  21
 132.939
  31
0.0
   0
ARC
   8
LEVEL001
   6
CONTINUOUS
  62
7
  10
 70.3099
  20
-253.861
  30
0.0
  40
 400.000
  50
 86.4675
  51
 93.5325
   0
POLYLINE
   8
LEVEL001
   6
CONTINUOUS
  62
7
  66
1
  10
0.0
  20
0.0
  30
0.0
  70
0
   0
VERTEX
   8
LEVEL001
   6
CONTINUOUS
  62
7
  10
 95.5486
  20
 142.939
  30
0.0
   0
VERTEX
   8
LEVEL001
   6
CONTINUOUS
  62
7
  10
 96.1099
  20
 142.939
  30
0.0
   0
VERTEX
   8
LEVEL001
   6
CONTINUOUS
  62
7
  10
 96.1099
  20
 140.939
  30
0.0
   0
VERTEX
   8
LEVEL001
   6
CONTINUOUS
  62
7
  10
 95.5809
  20
 140.939
  30
0.0
   0
SEQEND
   0
POLYLINE
   8
LEVEL001
   6
CONTINUOUS
  62
7
  66
1
  10
0.0
  20
0.0
  30
0.0
  70
0
   0
VERTEX
   8
LEVEL001
   6
CONTINUOUS
  62
7
  10
 45.0712
  20
 142.939
  30
0.0
   0
VERTEX
   8
LEVEL001
   6
CONTINUOUS
  62
7
  10
 44.5099
  20
 142.939
  30
0.0
   0
VERTEX
   8
LEVEL001
   6
CONTINUOUS
  62
7
  10
 44.5099
  20
 140.939
  30
0.0
   0
VERTEX
   8
LEVEL001
   6
CONTINUOUS
  62
7
  10
 45.0389
  20
 140.939
  30
0.0
   0
SEQEND
   0
ARC
   8
LEVEL001
   6
CONTINUOUS
  62
7
  10
 43.4828
  20
 142.539
  30
0.0
  40
 0.600001
  50
 89.9992
  51
 137.143
   0
LINE
   8
LEVEL001
   6
CONTINUOUS
  62
7
  10
 43.4828
  20
 143.139
  30
0.0
  11
 44.0236
  21
 143.139
  31
0.0
   0
LINE
   8
LEVEL001
   6
CONTINUOUS
  62
7
  10
 93.5099
  20
 78.7387
  30
0.0
  11
 93.5099
  21
 79.5387
  31
0.0
   0
ARC
   8
LEVEL001
   6
CONTINUOUS
  62
7
  10
 93.9099
  20
 79.5387
  30
0.0
  40
 0.400000
  50
 90.0007
  51
 180.001
   0
LINE
   8
LEVEL001
   6
CONTINUOUS
  62
7
  10
 93.9099
  20
 79.9387
  30
0.0
  11
 96.3099
  21
 79.9387
  31
0.0
   0
POLYLINE
   8
LEVEL001
   6
CONTINUOUS
  62
7
  66
1
  10
0.0
  20
0.0
  30
0.0
  70
0
   0
VERTEX
   8
LEVEL001
   6
CONTINUOUS
  62
7
  10
 94.3099
  20
 79.9387
  30
0.0
   0
VERTEX
   8
LEVEL001
   6
CONTINUOUS
  62
7
  10
 94.3099
  20
 80.3387
  30
0.0
   0
VERTEX
   8
LEVEL001
   6
CONTINUOUS
  62
7
  10
 96.3099
  20
 80.3387
  30
0.0
   0
SEQEND
   0
POLYLINE
   8
LEVEL001
   6
CONTINUOUS
  62
7
  66
1
  10
0.0
  20
0.0
  30
0.0
  70
0
   0
VERTEX
   8
LEVEL001
   6
CONTINUOUS
  62
7
  10
 94.4624
  20
 80.3387
  30
0.0
   0
VERTEX
   8
LEVEL001
   6
CONTINUOUS
  62
7
  10
 94.4624
  20
 81.7958
  30
0.0
   0
VERTEX
   8
LEVEL001
   6
CONTINUOUS
  62
7
  10
 94.7099
  20
 81.9387
  30
0.0
   0
VERTEX
   8
LEVEL001
   6
CONTINUOUS
  62
7
  10
 96.3099
  20
 81.9387
  30
0.0
   0
SEQEND
   0
LINE
   8
LEVEL001
   6
CONTINUOUS
  62
7
  10
 95.3861
  20
 81.7957
  30
0.0
  11
 95.3861
  21
 80.3387
  31
0.0
   0
POLYLINE
   8
LEVEL001
   6
CONTINUOUS
  62
7
  66
1
  10
0.0
  20
0.0
  30
0.0
  70
0
   0
VERTEX
   8
LEVEL001
   6
CONTINUOUS
  62
7
  10
 95.3862
  20
 81.7957
  30
0.0
   0
VERTEX
   8
LEVEL001
   6
CONTINUOUS
  62
7
  10
 95.3809
  20
 81.8136
  30
0.0
   0
VERTEX
   8
LEVEL001
   6
CONTINUOUS
  62
7
  10
 95.3651
  20
 81.8311
  30
0.0
   0
VERTEX
   8
LEVEL001
   6
CONTINUOUS
  62
7
  10
 95.3392
  20
 81.8481
  30
0.0
   0
VERTEX
   8
LEVEL001
   6
CONTINUOUS
  62
7
  10
 95.3034
  20
 81.8643
  30
0.0
   0
VERTEX
   8
LEVEL001
   6
CONTINUOUS
  62
7
  10
 95.2583
  20
 81.8794
  30
0.0
   0
VERTEX
   8
LEVEL001
   6
CONTINUOUS
  62
7
  10
 95.2047
  20
 81.8932
  30
0.0
   0
VERTEX
   8
LEVEL001
   6
CONTINUOUS
  62
7
  10
 95.1434
  20
 81.9054
  30
0.0
   0
VERTEX
   8
LEVEL001
   6
CONTINUOUS
  62
7
  10
 95.0753
  20
 81.9160
  30
0.0
   0
VERTEX
   8
LEVEL001
   6
CONTINUOUS
  62
7
  10
 95.0015
  20
 81.9247
  30
0.0
   0
VERTEX
   8
LEVEL001
   6
CONTINUOUS
  62
7
  10
 94.9231
  20
 81.9314
  30
0.0
   0
VERTEX
   8
LEVEL001
   6
CONTINUOUS
  62
7
  10
 94.8415
  20
 81.9359
  30
0.0
   0
VERTEX
   8
LEVEL001
   6
CONTINUOUS
  62
7
  10
 94.7577
  20
 81.9383
  30
0.0
   0
VERTEX
   8
LEVEL001
   6
CONTINUOUS
  62
7
  10
 94.7099
  20
 81.9387
  30
0.0
   0
SEQEND
   0
POLYLINE
   8
LEVEL001
   6
CONTINUOUS
  62
7
  66
1
  10
0.0
  20
0.0
  30
0.0
  70
0
   0
VERTEX
   8
LEVEL001
   6
CONTINUOUS
  62
7
  10
 96.3099
  20
 81.9387
  30
0.0
   0
VERTEX
   8
LEVEL001
   6
CONTINUOUS
  62
7
  10
 96.1947
  20
 81.9375
  30
0.0
   0
VERTEX
   8
LEVEL001
   6
CONTINUOUS
  62
7
  10
 96.0813
  20
 81.9342
  30
0.0
   0
VERTEX
   8
LEVEL001
   6
CONTINUOUS
  62
7
  10
 95.9715
  20
 81.9287
  30
0.0
   0
VERTEX
   8
LEVEL001
   6
CONTINUOUS
  62
7
  10
 95.8670
  20
 81.9212
  30
0.0
   0
VERTEX
   8
LEVEL001
   6
CONTINUOUS
  62
7
  10
 95.7694
  20
 81.9116
  30
0.0
   0
VERTEX
   8
LEVEL001
   6
CONTINUOUS
  62
7
  10
 95.6802
  20
 81.9003
  30
0.0
   0
VERTEX
   8
LEVEL001
   6
CONTINUOUS
  62
7
  10
 95.6008
  20
 81.8874
  30
0.0
   0
VERTEX
   8
LEVEL001
   6
CONTINUOUS
  62
7
  10
 95.5325
  20
 81.8730
  30
0.0
   0
VERTEX
   8
LEVEL001
   6
CONTINUOUS
  62
7
  10
 95.4764
  20
 81.8574
  30
0.0
   0
VERTEX
   8
LEVEL001
   6
CONTINUOUS
  62
7
  10
 95.4332
  20
 81.8408
  30
0.0
   0
VERTEX
   8
LEVEL001
   6
CONTINUOUS
  62
7
  10
 95.4038
  20
 81.8235
  30
0.0
   0
VERTEX
   8
LEVEL001
   6
CONTINUOUS
  62
7
  10
 95.3884
  20
 81.8059
  30
0.0
   0
VERTEX
   8
LEVEL001
   6
CONTINUOUS
  62
7
  10
 95.3861
  20
 81.7957
  30
0.0
   0
SEQEND
   0
LINE
   8
LEVEL001
   6
CONTINUOUS
  62
7
  10
 92.7099
  20
 78.7387
  30
0.0
  11
 92.7099
  21
 110.333
  31
0.0
   0
POLYLINE
   8
LEVEL001
   6
CONTINUOUS
  62
7
  66
1
  10
0.0
  20
0.0
  30
0.0
  70
0
   0
VERTEX
   8
LEVEL001
   6
CONTINUOUS
  62
7
  10
 96.3099
  20
 124.857
  30
0.0
   0
VERTEX
   8
LEVEL001
   6
CONTINUOUS
  62
7
  10
 95.8611
  20
 124.743
  30
0.0
   0
VERTEX
   8
LEVEL001
   6
CONTINUOUS
  62
7
  10
 95.4192
  20
 124.405
  30
0.0
   0
VERTEX
   8
LEVEL001
   6
CONTINUOUS
  62
7
  10
 94.9913
  20
 123.847
  30
0.0
   0
VERTEX
   8
LEVEL001
   6
CONTINUOUS
  62
7
  10
 94.5839
  20
 123.079
  30
0.0
   0
VERTEX
   8
LEVEL001
   6
CONTINUOUS
  62
7
  10
 94.2035
  20
 122.111
  30
0.0
   0
VERTEX
   8
LEVEL001
   6
CONTINUOUS
  62
7
  10
 93.8560
  20
 120.960
  30
0.0
   0
VERTEX
   8
LEVEL001
   6
CONTINUOUS
  62
7
  10
 93.5467
  20
 119.643
  30
0.0
   0
VERTEX
   8
LEVEL001
   6
CONTINUOUS
  62
7
  10
 93.2806
  20
 118.180
  30
0.0
   0
VERTEX
   8
LEVEL001
   6
CONTINUOUS
  62
7
  10
 93.0617
  20
 116.595
  30
0.0
   0
VERTEX
   8
LEVEL001
   6
CONTINUOUS
  62
7
  10
 92.8935
  20
 114.913
  30
0.0
   0
VERTEX
   8
LEVEL001
   6
CONTINUOUS
  62
7
  10
 92.7787
  20
 113.159
  30
0.0
   0
VERTEX
   8
LEVEL001
   6
CONTINUOUS
  62
7
  10
 92.7189
  20
 111.360
  30
0.0
   0
VERTEX
   8
LEVEL001
   6
CONTINUOUS
  62
7
  10
 92.7099
  20
 110.333
  30
0.0
   0
SEQEND
   0
LINE
   8
LEVEL001
   6
CONTINUOUS
  62
7
  10
 27.4607
  20
 80.8529
  30
0.0
  11
 30.4137
  21
 114.496
  31
0.0
   0
ARC
   8
LEVEL001
   6
CONTINUOUS
  62
7
  10
 78.2299
  20
 110.299
  30
0.0
  40
 48.0001
  50
 137.143
  51
 174.984
   0
ARC
   8
LEVEL001
   6
CONTINUOUS
  62
7
  10
 88.8300
  20
 96.4987
  30
0.0
  40
 60.0001
  50
 139.909
  51
 169.922
   0
LINE
   8
LEVEL001
   6
CONTINUOUS
  62
7
  10
 44.4234
  20
 142.753
  30
0.0
  11
 45.2897
  21
 117.939
  31
0.0
   0
ARC
   8
LEVEL001
   6
CONTINUOUS
  62
7
  10
 145.247
  20
 120.862
  30
0.0
  40
 100.000
  50
 181.675
  51
 193.252
   0
ARC
   8
LEVEL001
   6
CONTINUOUS
  62
7
  10
 163.473
  20
 119.956
  30
0.0
  40
 120.000
  50
 180.963
  51
 190.572
   0
LINE
   8
LEVEL001
   6
CONTINUOUS
  62
7
  10
 43.3098
  20
 143.113
  30
0.0
  11
 42.9283
  21
 135.139
  31
0.0
   0
LINE
   8
LEVEL001
   6
CONTINUOUS
  62
7
  10
 42.9283
  20
 135.139
  30
0.0
  11
 43.4897
  21
 117.939
  31
0.0
   0
POLYLINE
   8
LEVEL001
   6
DOT
  62
7
  66
1
  10
0.0
  20
0.0
  30
0.0
  70
0
   0
VERTEX
   8
LEVEL001
   6
DOT
  62
7
  10
 44.9099
  20
 54.9387
  30
0.0
   0
VERTEX
   8
LEVEL001
   6
DOT
  62
7
  10
 44.9099
  20
 58.1387
  30
0.0
   0
VERTEX
   8
LEVEL001
   6
DOT
  62
7
  10
 50.1099
  20
 58.1387
  30
0.0
   0
VERTEX
   8
LEVEL001
   6
DOT
  62
7
  10
 50.1099
  20
 54.9387
  30
0.0
   0
SEQEND
   0
POLYLINE
   8
LEVEL001
   6
CONTINUOUS
  62
7
  66
1
  10
0.0
  20
0.0
  30
0.0
  70
0
   0
VERTEX
   8
LEVEL001
   6
CONTINUOUS
  62
7
  10
 52.5099
  20
 59.1387
  30
0.0
   0
VERTEX
   8
LEVEL001
   6
CONTINUOUS
  62
7
  10
 52.5099
  20
 54.9387
  30
0.0
   0
VERTEX
   8
LEVEL001
   6
CONTINUOUS
  62
7
  10
 42.5099
  20
 54.9387
  30
0.0
   0
VERTEX
   8
LEVEL001
   6
CONTINUOUS
  62
7
  10
 42.5099
  20
 59.1387
  30
0.0
   0
SEQEND
   0
POLYLINE
   8
LEVEL001
   6
DOT
  62
7
  66
1
  10
0.0
  20
0.0
  30
0.0
  70
0
   0
VERTEX
   8
LEVEL001
   6
DOT
  62
7
  10
 52.5099
  20
 59.1387
  30
0.0
   0
VERTEX
   8
LEVEL001
   6
DOT
  62
7
  10
 52.5099
  20
 59.9387
  30
0.0
   0
VERTEX
   8
LEVEL001
   6
DOT
  62
7
  10
 42.5099
  20
 59.9387
  30
0.0
   0
VERTEX
   8
LEVEL001
   6
DOT
  62
7
  10
 42.5099
  20
 59.1387
  30
0.0
   0
SEQEND
   0
LINE
   8
LEVEL001
   6
CONTINUOUS
  62
7
  10
 84.6426
  20
 74.7387
  30
0.0
  11
 96.3099
  21
 74.7387
  31
0.0
   0
LINE
   8
LEVEL001
   6
CONTINUOUS
  62
7
  10
 95.8623
  20
 69.5387
  30
0.0
  11
 96.3099
  21
 69.5387
  31
0.0
   0
LINE
   8
LEVEL001
   6
CONTINUOUS
  62
7
  10
 41.0507
  20
 63.9387
  30
0.0
  11
 96.3099
  21
 63.9387
  31
0.0
   0
ARC
   8
LEVEL001
   6
CONTINUOUS
  62
7
  10
 137.322
  20
 63.1387
  30
0.0
  40
 0.800000
  50
 17.3544
  51
 89.9991
   0
LINE
   8
LEVEL001
   6
CONTINUOUS
  62
7
  10
 138.085
  20
 63.3773
  30
0.0
  11
 139.410
  21
 59.1387
  31
0.0
   0
LINE
   8
LEVEL001
   6
CONTINUOUS
  62
7
  10
 139.410
  20
 59.1387
  30
0.0
  11
 150.810
  21
 59.1387
  31
0.0
   0
LINE
   8
LEVEL001
   6
CONTINUOUS
  62
7
  10
 150.810
  20
 59.1387
  30
0.0
  11
 152.161
  21
 63.4301
  31
0.0
   0
ARC
   8
LEVEL001
   6
CONTINUOUS
  62
7
  10
 152.924
  20
 63.1899
  30
0.0
  40
 0.800000
  50
 100.879
  51
 162.527
   0
LINE
   8
LEVEL001
   6
CONTINUOUS
  62
7
  10
 156.909
  20
 66.7387
  30
0.0
  11
 162.239
  21
 71.9387
  31
0.0
   0
ARC
   8
LEVEL001
   6
CONTINUOUS
  62
7
  10
 165.110
  20
 72.3387
  30
0.0
  40
 0.400000
  50
 269.999
  51
0.0
   0
LINE
   8
LEVEL001
   6
CONTINUOUS
  62
7
  10
 165.110
  20
 71.9387
  30
0.0
  11
 160.310
  21
 71.9387
  31
0.0
   0
ARC
   8
LEVEL001
   6
CONTINUOUS
  62
7
  10
 160.310
  20
 72.3387
  30
0.0
  40
 0.400000
  50
 180.001
  51
 269.999
   0
ARC
   8
LEVEL001
   6
CONTINUOUS
  62
7
  10
 159.510
  20
 74.3387
  30
0.0
  40
 0.400000
  50
 0.732537E-3
  51
 90.0006
   0
LINE
   8
LEVEL001
   6
CONTINUOUS
  62
7
  10
 159.910
  20
 72.3387
  30
0.0
  11
 159.910
  21
 74.3387
  31
0.0
   0
ARC
   8
LEVEL001
   6
CONTINUOUS
  62
7
  10
 165.910
  20
 74.3387
  30
0.0
  40
 0.400000
  50
 90.0007
  51
 179.999
   0
LINE
   8
LEVEL001
   6
CONTINUOUS
  62
7
  10
 165.510
  20
 74.3387
  30
0.0
  11
 165.510
  21
 72.3387
  31
0.0
   0
LINE
   8
LEVEL001
   6
CONTINUOUS
  62
7
  10
 160.030
  20
 71.9387
  30
0.0
  11
 154.550
  21
 66.7387
  31
0.0
   0
LINE
   8
LEVEL001
   6
CONTINUOUS
  62
7
  10
 155.990
  20
 66.7387
  30
0.0
  11
 161.470
  21
 71.9387
  31
0.0
   0
LINE
   8
LEVEL001
   6
CONTINUOUS
  62
7
  10
 155.878
  20
 74.3596
  30
0.0
  11
 155.650
  21
 70.0037
  31
0.0
   0
ARC
   8
LEVEL001
   6
CONTINUOUS
  62
7
  10
 156.277
  20
 74.3387
  30
0.0
  40
 0.400000
  50
 90.0061
  51
 176.999
   0
ARC
   8
LEVEL001
   6
CONTINUOUS
  62
7
  10
 149.258
  20
 70.3386
  30
0.0
  40
 6.40000
  50
 325.771
  51
 357.000
   0
ARC
   8
LEVEL001
   6
CONTINUOUS
  62
7
  10
 151.569
  20
 70.3387
  30
0.0
  40
 6.40000
  50
 270.000
  51
 341.431
   0
LINE
   8
LEVEL001
   6
CONTINUOUS
  62
7
  10
 155.990
  20
 66.7387
  30
0.0
  11
 154.550
  21
 66.7387
  31
0.0
   0
LINE
   8
LEVEL001
   6
CONTINUOUS
  62
7
  10
 147.910
  20
 66.7387
  30
0.0
  11
 147.110
  21
 66.7387
  31
0.0
   0
ARC
   8
LEVEL001
   6
CONTINUOUS
  62
7
  10
 148.575
  20
 74.3387
  30
0.0
  40
 0.400000
  50
 89.9960
  51
 177.999
   0
ARC
   8
LEVEL001
   6
CONTINUOUS
  62
7
  10
 146.444
  20
 74.3387
  30
0.0
  40
 0.400000
  50
 1.99971
  51
 90.0001
   0
LINE
   8
LEVEL001
   6
CONTINUOUS
  62
7
  10
 148.176
  20
 74.3526
  30
0.0
  11
 147.910
  21
 66.7387
  31
0.0
   0
LINE
   8
LEVEL001
   6
CONTINUOUS
  62
7
  10
 147.110
  20
 66.7387
  30
0.0
  11
 146.844
  21
 74.3526
  31
0.0
   0
ARC
   8
LEVEL001
   6
CONTINUOUS
  62
7
  10
 167.151
  20
 81.0272
  30
0.0
  40
 2.00000
  50
 185.000
  51
 251.818
   0
ARC
   8
LEVEL001
   6
CONTINUOUS
  62
7
  10
 166.910
  20
 78.1594
  30
0.0
  40
 0.800000
  50
 0.774849E-3
  51
 71.8180
   0
LINE
   8
LEVEL001
   6
CONTINUOUS
  62
7
  10
 166.527
  20
 79.1270
  30
0.0
  11
 167.160
  21
 78.9194
  31
0.0
   0
LINE
   8
LEVEL001
   6
CONTINUOUS
  62
7
  10
 167.710
  20
 74.7387
  30
0.0
  11
 167.710
  21
 78.1594
  31
0.0
   0
LINE
   8
LEVEL001
   6
CONTINUOUS
  62
7
  10
 165.510
  20
 78.7387
  30
0.0
  11
 165.510
  21
 79.5387
  31
0.0
   0
ARC
   8
LEVEL001
   6
CONTINUOUS
  62
7
  10
 165.110
  20
 79.5387
  30
0.0
  40
 0.400000
  50
0.0
  51
 90.0006
   0
LINE
   8
LEVEL001
   6
CONTINUOUS
  62
7
  10
 165.110
  20
 79.9387
  30
0.0
  11
 160.310
  21
 79.9387
  31
0.0
   0
ARC
   8
LEVEL001
   6
CONTINUOUS
  62
7
  10
 160.310
  20
 79.5387
  30
0.0
  40
 0.400000
  50
 90.0007
  51
 180.001
   0
LINE
   8
LEVEL001
   6
CONTINUOUS
  62
7
  10
 157.656
  20
 79.9387
  30
0.0
  11
 161.310
  21
 78.7387
  31
0.0
   0
LINE
   8
LEVEL001
   6
CONTINUOUS
  62
7
  10
 159.910
  20
 79.5387
  30
0.0
  11
 159.910
  21
 79.1985
  31
0.0
   0
POLYLINE
   8
LEVEL001
   6
CONTINUOUS
  62
7
  66
1
  10
0.0
  20
0.0
  30
0.0
  70
0
   0
VERTEX
   8
LEVEL001
   6
CONTINUOUS
  62
7
  10
 164.710
  20
 79.9387
  30
0.0
   0
VERTEX
   8
LEVEL001
   6
CONTINUOUS
  62
7
  10
 164.710
  20
 80.3387
  30
0.0
   0
VERTEX
   8
LEVEL001
   6
CONTINUOUS
  62
7
  10
 160.710
  20
 80.3387
  30
0.0
   0
VERTEX
   8
LEVEL001
   6
CONTINUOUS
  62
7
  10
 160.710
  20
 79.9387
  30
0.0
   0
SEQEND
   0
POLYLINE
   8
LEVEL001
   6
CONTINUOUS
  62
7
  66
1
  10
0.0
  20
0.0
  30
0.0
  70
0
   0
VERTEX
   8
LEVEL001
   6
CONTINUOUS
  62
7
  10
 164.557
  20
 80.3387
  30
0.0
   0
VERTEX
   8
LEVEL001
   6
CONTINUOUS
  62
7
  10
 164.557
  20
 81.7958
  30
0.0
   0
VERTEX
   8
LEVEL001
   6
CONTINUOUS
  62
7
  10
 164.310
  20
 81.9387
  30
0.0
   0
VERTEX
   8
LEVEL001
   6
CONTINUOUS
  62
7
  10
 161.110
  20
 81.9387
  30
0.0
   0
VERTEX
   8
LEVEL001
   6
CONTINUOUS
  62
7
  10
 160.862
  20
 81.7957
  30
0.0
   0
VERTEX
   8
LEVEL001
   6
CONTINUOUS
  62
7
  10
 160.862
  20
 80.3387
  30
0.0
   0
SEQEND
   0
POLYLINE
   8
LEVEL001
   6
CONTINUOUS
  62
7
  66
1
  10
0.0
  20
0.0
  30
0.0
  70
0
   0
VERTEX
   8
LEVEL001
   6
CONTINUOUS
  62
7
  10
 163.634
  20
 81.7957
  30
0.0
   0
VERTEX
   8
LEVEL001
   6
CONTINUOUS
  62
7
  10
 163.626
  20
 81.8136
  30
0.0
   0
VERTEX
   8
LEVEL001
   6
CONTINUOUS
  62
7
  10
 163.605
  20
 81.8311
  30
0.0
   0
VERTEX
   8
LEVEL001
   6
CONTINUOUS
  62
7
  10
 163.569
  20
 81.8481
  30
0.0
   0
VERTEX
   8
LEVEL001
   6
CONTINUOUS
  62
7
  10
 163.521
  20
 81.8643
  30
0.0
   0
VERTEX
   8
LEVEL001
   6
CONTINUOUS
  62
7
  10
 163.459
  20
 81.8794
  30
0.0
   0
VERTEX
   8
LEVEL001
   6
CONTINUOUS
  62
7
  10
 163.386
  20
 81.8932
  30
0.0
   0
VERTEX
   8
LEVEL001
   6
CONTINUOUS
  62
7
  10
 163.302
  20
 81.9054
  30
0.0
   0
VERTEX
   8
LEVEL001
   6
CONTINUOUS
  62
7
  10
 163.209
  20
 81.9160
  30
0.0
   0
VERTEX
   8
LEVEL001
   6
CONTINUOUS
  62
7
  10
 163.108
  20
 81.9247
  30
0.0
   0
VERTEX
   8
LEVEL001
   6
CONTINUOUS
  62
7
  10
 163.001
  20
 81.9314
  30
0.0
   0
VERTEX
   8
LEVEL001
   6
CONTINUOUS
  62
7
  10
 162.890
  20
 81.9359
  30
0.0
   0
VERTEX
   8
LEVEL001
   6
CONTINUOUS
  62
7
  10
 162.775
  20
 81.9383
  30
0.0
   0
VERTEX
   8
LEVEL001
   6
CONTINUOUS
  62
7
  10
 162.660
  20
 81.9385
  30
0.0
   0
VERTEX
   8
LEVEL001
   6
CONTINUOUS
  62
7
  10
 162.545
  20
 81.9364
  30
0.0
   0
VERTEX
   8
LEVEL001
   6
CONTINUOUS
  62
7
  10
 162.433
  20
 81.9321
  30
0.0
   0
VERTEX
   8
LEVEL001
   6
CONTINUOUS
  62
7
  10
 162.325
  20
 81.9257
  30
0.0
   0
VERTEX
   8
LEVEL001
   6
CONTINUOUS
  62
7
  10
 162.224
  20
 81.9173
  30
0.0
   0
VERTEX
   8
LEVEL001
   6
CONTINUOUS
  62
7
  10
 162.130
  20
 81.9069
  30
0.0
   0
VERTEX
   8
LEVEL001
   6
CONTINUOUS
  62
7
  10
 162.045
  20
 81.8949
  30
0.0
   0
VERTEX
   8
LEVEL001
   6
CONTINUOUS
  62
7
  10
 161.970
  20
 81.8813
  30
0.0
   0
VERTEX
   8
LEVEL001
   6
CONTINUOUS
  62
7
  10
 161.907
  20
 81.8663
  30
0.0
   0
VERTEX
   8
LEVEL001
   6
CONTINUOUS
  62
7
  10
 161.856
  20
 81.8503
  30
0.0
   0
VERTEX
   8
LEVEL001
   6
CONTINUOUS
  62
7
  10
 161.819
  20
 81.8334
  30
0.0
   0
VERTEX
   8
LEVEL001
   6
CONTINUOUS
  62
7
  10
 161.795
  20
 81.8159
  30
0.0
   0
VERTEX
   8
LEVEL001
   6
CONTINUOUS
  62
7
  10
 161.786
  20
 81.7981
  30
0.0
   0
VERTEX
   8
LEVEL001
   6
CONTINUOUS
  62
7
  10
 161.786
  20
 81.7957
  30
0.0
   0
SEQEND
   0
LINE
   8
LEVEL001
   6
CONTINUOUS
  62
7
  10
 163.634
  20
 81.7957
  30
0.0
  11
 163.634
  21
 80.3387
  31
0.0
   0
LINE
   8
LEVEL001
   6
CONTINUOUS
  62
7
  10
 161.786
  20
 81.7957
  30
0.0
  11
 161.786
  21
 80.3387
  31
0.0
   0
POLYLINE
   8
LEVEL001
   6
CONTINUOUS
  62
7
  66
1
  10
0.0
  20
0.0
  30
0.0
  70
0
   0
VERTEX
   8
LEVEL001
   6
CONTINUOUS
  62
7
  10
 164.310
  20
 81.9387
  30
0.0
   0
VERTEX
   8
LEVEL001
   6
CONTINUOUS
  62
7
  10
 164.226
  20
 81.9375
  30
0.0
   0
VERTEX
   8
LEVEL001
   6
CONTINUOUS
  62
7
  10
 164.143
  20
 81.9342
  30
0.0
   0
VERTEX
   8
LEVEL001
   6
CONTINUOUS
  62
7
  10
 164.062
  20
 81.9287
  30
0.0
   0
VERTEX
   8
LEVEL001
   6
CONTINUOUS
  62
7
  10
 163.986
  20
 81.9212
  30
0.0
   0
VERTEX
   8
LEVEL001
   6
CONTINUOUS
  62
7
  10
 163.914
  20
 81.9116
  30
0.0
   0
VERTEX
   8
LEVEL001
   6
CONTINUOUS
  62
7
  10
 163.849
  20
 81.9003
  30
0.0
   0
VERTEX
   8
LEVEL001
   6
CONTINUOUS
  62
7
  10
 163.791
  20
 81.8874
  30
0.0
   0
VERTEX
   8
LEVEL001
   6
CONTINUOUS
  62
7
  10
 163.741
  20
 81.8730
  30
0.0
   0
VERTEX
   8
LEVEL001
   6
CONTINUOUS
  62
7
  10
 163.700
  20
 81.8574
  30
0.0
   0
VERTEX
   8
LEVEL001
   6
CONTINUOUS
  62
7
  10
 163.668
  20
 81.8408
  30
0.0
   0
VERTEX
   8
LEVEL001
   6
CONTINUOUS
  62
7
  10
 163.647
  20
 81.8235
  30
0.0
   0
VERTEX
   8
LEVEL001
   6
CONTINUOUS
  62
7
  10
 163.635
  20
 81.8059
  30
0.0
   0
VERTEX
   8
LEVEL001
   6
CONTINUOUS
  62
7
  10
 163.634
  20
 81.7957
  30
0.0
   0
SEQEND
   0
POLYLINE
   8
LEVEL001
   6
CONTINUOUS
  62
7
  66
1
  10
0.0
  20
0.0
  30
0.0
  70
0
   0
VERTEX
   8
LEVEL001
   6
CONTINUOUS
  62
7
  10
 161.786
  20
 81.7957
  30
0.0
   0
VERTEX
   8
LEVEL001
   6
CONTINUOUS
  62
7
  10
 161.781
  20
 81.8136
  30
0.0
   0
VERTEX
   8
LEVEL001
   6
CONTINUOUS
  62
7
  10
 161.765
  20
 81.8311
  30
0.0
   0
VERTEX
   8
LEVEL001
   6
CONTINUOUS
  62
7
  10
 161.739
  20
 81.8481
  30
0.0
   0
VERTEX
   8
LEVEL001
   6
CONTINUOUS
  62
7
  10
 161.703
  20
 81.8643
  30
0.0
   0
VERTEX
   8
LEVEL001
   6
CONTINUOUS
  62
7
  10
 161.658
  20
 81.8794
  30
0.0
   0
VERTEX
   8
LEVEL001
   6
CONTINUOUS
  62
7
  10
 161.605
  20
 81.8932
  30
0.0
   0
VERTEX
   8
LEVEL001
   6
CONTINUOUS
  62
7
  10
 161.543
  20
 81.9054
  30
0.0
   0
VERTEX
   8
LEVEL001
   6
CONTINUOUS
  62
7
  10
 161.475
  20
 81.9160
  30
0.0
   0
VERTEX
   8
LEVEL001
   6
CONTINUOUS
  62
7
  10
 161.401
  20
 81.9247
  30
0.0
   0
VERTEX
   8
LEVEL001
   6
CONTINUOUS
  62
7
  10
 161.323
  20
 81.9314
  30
0.0
   0
VERTEX
   8
LEVEL001
   6
CONTINUOUS
  62
7
  10
 161.241
  20
 81.9359
  30
0.0
   0
VERTEX
   8
LEVEL001
   6
CONTINUOUS
  62
7
  10
 161.158
  20
 81.9383
  30
0.0
   0
VERTEX
   8
LEVEL001
   6
CONTINUOUS
  62
7
  10
 161.110
  20
 81.9387
  30
0.0
   0
SEQEND
   0
LINE
   8
LEVEL001
   6
CONTINUOUS
  62
7
  10
 167.462
  20
 78.7387
  30
0.0
  11
 96.3099
  21
 78.7387
  31
0.0
   0
ARC
   8
LEVEL001
   6
CONTINUOUS
  62
7
  10
 96.7575
  20
 69.1387
  30
0.0
  40
 0.400001
  50
 10.1636
  51
 89.9999
   0
ARC
   8
LEVEL001
   6
CONTINUOUS
  62
7
  10
 103.451
  20
 70.3387
  30
0.0
  40
 6.40000
  50
 190.164
  51
 270.000
   0
ARC
   8
LEVEL001
   6
CONTINUOUS
  62
7
  10
 148.596
  20
 142.739
  30
0.0
  40
 0.400000
  50
 89.9998
  51
 177.998
   0
LINE
   8
LEVEL001
   6
CONTINUOUS
  62
7
  10
 131.510
  20
 129.939
  30
0.0
  11
 113.110
  21
 129.939
  31
0.0
   0
LINE
   8
LEVEL001
   6
CONTINUOUS
  62
7
  10
 112.310
  20
 132.819
  30
0.0
  11
 112.310
  21
 126.739
  31
0.0
   0
ARC
   8
LEVEL001
   6
CONTINUOUS
  62
7
  10
 113.110
  20
 126.739
  30
0.0
  40
 0.800000
  50
 180.000
  51
 270.001
   0
LINE
   8
LEVEL001
   6
CONTINUOUS
  62
7
  10
 113.110
  20
 125.939
  30
0.0
  11
 131.510
  21
 125.939
  31
0.0
   0
ARC
   8
LEVEL001
   6
CONTINUOUS
  62
7
  10
 131.510
  20
 126.739
  30
0.0
  40
 0.800000
  50
 270.001
  51
0.0
   0
LINE
   8
LEVEL001
   6
CONTINUOUS
  62
7
  10
 132.310
  20
 126.739
  30
0.0
  11
 132.310
  21
 132.819
  31
0.0
   0
ARC
   8
LEVEL001
   6
CONTINUOUS
  62
7
  10
 132.327
  20
 129.932
  30
0.0
  40
 0.800000
  50
 167.734
  51
 191.309
   0
ARC
   8
LEVEL001
   6
CONTINUOUS
  62
7
  10
 112.293
  20
 129.932
  30
0.0
  40
 0.800000
  50
 348.687
  51
 12.2627
   0
LINE
   8
LEVEL001
   6
CONTINUOUS
  62
7
  10
 131.543
  20
 129.775
  30
0.0
  11
 132.223
  21
 126.375
  31
0.0
   0
LINE
   8
LEVEL001
   6
CONTINUOUS
  62
7
  10
 113.077
  20
 129.775
  30
0.0
  11
 112.397
  21
 126.375
  31
0.0
   0
ARC
   8
LEVEL001
   6
CONTINUOUS
  62
7
  10
 147.242
  20
 138.339
  30
0.0
  40
 0.800000
  50
 299.359
  51
 357.998
   0
LINE
   8
LEVEL001
   6
CONTINUOUS
  62
7
  10
 132.162
  20
 132.939
  30
0.0
  11
 131.545
  21
 130.102
  31
0.0
   0
LINE
   8
LEVEL001
   6
CONTINUOUS
  62
7
  10
 112.458
  20
 132.939
  30
0.0
  11
 113.074
  21
 130.102
  31
0.0
   0
LINE
   8
LEVEL001
   6
CONTINUOUS
  62
7
  10
 147.694
  20
 133.939
  30
0.0
  11
 96.9260
  21
 133.939
  31
0.0
   0
LINE
   8
LEVEL001
   6
CONTINUOUS
  62
7
  10
 96.9099
  20
 132.939
  30
0.0
  11
 147.710
  21
 132.939
  31
0.0
   0
ARC
   8
LEVEL001
   6
CONTINUOUS
  62
7
  10
 146.919
  20
 144.780
  30
0.0
  40
 0.600000
  50
 0.921169
  51
 86.4715
   0
LINE
   8
LEVEL001
   6
CONTINUOUS
  62
7
  10
 147.710
  20
 132.939
  30
0.0
  11
 147.519
  21
 144.789
  31
0.0
   0
ARC
   8
LEVEL001
   6
CONTINUOUS
  62
7
  10
 97.7010
  20
 144.780
  30
0.0
  40
 0.600000
  50
 93.5337
  51
 179.077
   0
LINE
   8
LEVEL001
   6
CONTINUOUS
  62
7
  10
 97.1010
  20
 144.789
  30
0.0
  11
 96.9099
  21
 132.939
  31
0.0
   0
ARC
   8
LEVEL001
   6
CONTINUOUS
  62
7
  10
 122.310
  20
-253.861
  30
0.0
  40
 400.000
  50
 86.4675
  51
 93.5325
   0
POLYLINE
   8
LEVEL001
   6
CONTINUOUS
  62
7
  66
1
  10
0.0
  20
0.0
  30
0.0
  70
0
   0
VERTEX
   8
LEVEL001
   6
CONTINUOUS
  62
7
  10
 97.0711
  20
 142.939
  30
0.0
   0
VERTEX
   8
LEVEL001
   6
CONTINUOUS
  62
7
  10
 96.5099
  20
 142.939
  30
0.0
   0
VERTEX
   8
LEVEL001
   6
CONTINUOUS
  62
7
  10
 96.5099
  20
 140.939
  30
0.0
   0
VERTEX
   8
LEVEL001
   6
CONTINUOUS
  62
7
  10
 97.0389
  20
 140.939
  30
0.0
   0
SEQEND
   0
POLYLINE
   8
LEVEL001
   6
CONTINUOUS
  62
7
  66
1
  10
0.0
  20
0.0
  30
0.0
  70
0
   0
VERTEX
   8
LEVEL001
   6
CONTINUOUS
  62
7
  10
 147.549
  20
 142.939
  30
0.0
   0
VERTEX
   8
LEVEL001
   6
CONTINUOUS
  62
7
  10
 148.110
  20
 142.939
  30
0.0
   0
VERTEX
   8
LEVEL001
   6
CONTINUOUS
  62
7
  10
 148.110
  20
 140.939
  30
0.0
   0
VERTEX
   8
LEVEL001
   6
CONTINUOUS
  62
7
  10
 147.581
  20
 140.939
  30
0.0
   0
SEQEND
   0
ARC
   8
LEVEL001
   6
CONTINUOUS
  62
7
  10
 149.137
  20
 142.539
  30
0.0
  40
 0.600001
  50
 42.8574
  51
 90.0008
   0
LINE
   8
LEVEL001
   6
CONTINUOUS
  62
7
  10
 149.137
  20
 143.139
  30
0.0
  11
 148.596
  21
 143.139
  31
0.0
   0
LINE
   8
LEVEL001
   6
CONTINUOUS
  62
7
  10
 99.1099
  20
 78.7387
  30
0.0
  11
 99.1099
  21
 79.5387
  31
0.0
   0
ARC
   8
LEVEL001
   6
CONTINUOUS
  62
7
  10
 98.7099
  20
 79.5387
  30
0.0
  40
 0.400000
  50
0.0
  51
 89.9993
   0
LINE
   8
LEVEL001
   6
CONTINUOUS
  62
7
  10
 98.7099
  20
 79.9387
  30
0.0
  11
 96.3099
  21
 79.9387
  31
0.0
   0
POLYLINE
   8
LEVEL001
   6
CONTINUOUS
  62
7
  66
1
  10
0.0
  20
0.0
  30
0.0
  70
0
   0
VERTEX
   8
LEVEL001
   6
CONTINUOUS
  62
7
  10
 98.3099
  20
 79.9387
  30
0.0
   0
VERTEX
   8
LEVEL001
   6
CONTINUOUS
  62
7
  10
 98.3099
  20
 80.3387
  30
0.0
   0
VERTEX
   8
LEVEL001
   6
CONTINUOUS
  62
7
  10
 96.3099
  20
 80.3387
  30
0.0
   0
SEQEND
   0
POLYLINE
   8
LEVEL001
   6
CONTINUOUS
  62
7
  66
1
  10
0.0
  20
0.0
  30
0.0
  70
0
   0
VERTEX
   8
LEVEL001
   6
CONTINUOUS
  62
7
  10
 98.1574
  20
 80.3387
  30
0.0
   0
VERTEX
   8
LEVEL001
   6
CONTINUOUS
  62
7
  10
 98.1574
  20
 81.7958
  30
0.0
   0
VERTEX
   8
LEVEL001
   6
CONTINUOUS
  62
7
  10
 97.9099
  20
 81.9387
  30
0.0
   0
VERTEX
   8
LEVEL001
   6
CONTINUOUS
  62
7
  10
 96.3099
  20
 81.9387
  30
0.0
   0
SEQEND
   0
LINE
   8
LEVEL001
   6
CONTINUOUS
  62
7
  10
 97.2336
  20
 81.7957
  30
0.0
  11
 97.2336
  21
 80.3387
  31
0.0
   0
POLYLINE
   8
LEVEL001
   6
CONTINUOUS
  62
7
  66
1
  10
0.0
  20
0.0
  30
0.0
  70
0
   0
VERTEX
   8
LEVEL001
   6
CONTINUOUS
  62
7
  10
 97.9099
  20
 81.9387
  30
0.0
   0
VERTEX
   8
LEVEL001
   6
CONTINUOUS
  62
7
  10
 97.8256
  20
 81.9375
  30
0.0
   0
VERTEX
   8
LEVEL001
   6
CONTINUOUS
  62
7
  10
 97.7426
  20
 81.9342
  30
0.0
   0
VERTEX
   8
LEVEL001
   6
CONTINUOUS
  62
7
  10
 97.6622
  20
 81.9287
  30
0.0
   0
VERTEX
   8
LEVEL001
   6
CONTINUOUS
  62
7
  10
 97.5857
  20
 81.9212
  30
0.0
   0
VERTEX
   8
LEVEL001
   6
CONTINUOUS
  62
7
  10
 97.5142
  20
 81.9116
  30
0.0
   0
VERTEX
   8
LEVEL001
   6
CONTINUOUS
  62
7
  10
 97.4489
  20
 81.9003
  30
0.0
   0
VERTEX
   8
LEVEL001
   6
CONTINUOUS
  62
7
  10
 97.3908
  20
 81.8874
  30
0.0
   0
VERTEX
   8
LEVEL001
   6
CONTINUOUS
  62
7
  10
 97.3408
  20
 81.8730
  30
0.0
   0
VERTEX
   8
LEVEL001
   6
CONTINUOUS
  62
7
  10
 97.2997
  20
 81.8574
  30
0.0
   0
VERTEX
   8
LEVEL001
   6
CONTINUOUS
  62
7
  10
 97.2681
  20
 81.8408
  30
0.0
   0
VERTEX
   8
LEVEL001
   6
CONTINUOUS
  62
7
  10
 97.2465
  20
 81.8235
  30
0.0
   0
VERTEX
   8
LEVEL001
   6
CONTINUOUS
  62
7
  10
 97.2353
  20
 81.8059
  30
0.0
   0
VERTEX
   8
LEVEL001
   6
CONTINUOUS
  62
7
  10
 97.2336
  20
 81.7957
  30
0.0
   0
SEQEND
   0
POLYLINE
   8
LEVEL001
   6
CONTINUOUS
  62
7
  66
1
  10
0.0
  20
0.0
  30
0.0
  70
0
   0
VERTEX
   8
LEVEL001
   6
CONTINUOUS
  62
7
  10
 97.2337
  20
 81.7957
  30
0.0
   0
VERTEX
   8
LEVEL001
   6
CONTINUOUS
  62
7
  10
 97.2265
  20
 81.8136
  30
0.0
   0
VERTEX
   8
LEVEL001
   6
CONTINUOUS
  62
7
  10
 97.2049
  20
 81.8311
  30
0.0
   0
VERTEX
   8
LEVEL001
   6
CONTINUOUS
  62
7
  10
 97.1695
  20
 81.8481
  30
0.0
   0
VERTEX
   8
LEVEL001
   6
CONTINUOUS
  62
7
  10
 97.1206
  20
 81.8643
  30
0.0
   0
VERTEX
   8
LEVEL001
   6
CONTINUOUS
  62
7
  10
 97.0590
  20
 81.8794
  30
0.0
   0
VERTEX
   8
LEVEL001
   6
CONTINUOUS
  62
7
  10
 96.9858
  20
 81.8932
  30
0.0
   0
VERTEX
   8
LEVEL001
   6
CONTINUOUS
  62
7
  10
 96.9020
  20
 81.9054
  30
0.0
   0
VERTEX
   8
LEVEL001
   6
CONTINUOUS
  62
7
  10
 96.8090
  20
 81.9160
  30
0.0
   0
VERTEX
   8
LEVEL001
   6
CONTINUOUS
  62
7
  10
 96.7082
  20
 81.9247
  30
0.0
   0
VERTEX
   8
LEVEL001
   6
CONTINUOUS
  62
7
  10
 96.6012
  20
 81.9314
  30
0.0
   0
VERTEX
   8
LEVEL001
   6
CONTINUOUS
  62
7
  10
 96.4896
  20
 81.9359
  30
0.0
   0
VERTEX
   8
LEVEL001
   6
CONTINUOUS
  62
7
  10
 96.3752
  20
 81.9383
  30
0.0
   0
VERTEX
   8
LEVEL001
   6
CONTINUOUS
  62
7
  10
 96.3099
  20
 81.9387
  30
0.0
   0
SEQEND
   0
LINE
   8
LEVEL001
   6
CONTINUOUS
  62
7
  10
 99.9099
  20
 78.7387
  30
0.0
  11
 99.9099
  21
 110.333
  31
0.0
   0
POLYLINE
   8
LEVEL001
   6
CONTINUOUS
  62
7
  66
1
  10
0.0
  20
0.0
  30
0.0
  70
0
   0
VERTEX
   8
LEVEL001
   6
CONTINUOUS
  62
7
  10
 99.9099
  20
 110.333
  30
0.0
   0
VERTEX
   8
LEVEL001
   6
CONTINUOUS
  62
7
  10
 99.8818
  20
 112.144
  30
0.0
   0
VERTEX
   8
LEVEL001
   6
CONTINUOUS
  62
7
  10
 99.7980
  20
 113.926
  30
0.0
   0
VERTEX
   8
LEVEL001
   6
CONTINUOUS
  62
7
  10
 99.6597
  20
 115.653
  30
0.0
   0
VERTEX
   8
LEVEL001
   6
CONTINUOUS
  62
7
  10
 99.4692
  20
 117.296
  30
0.0
   0
VERTEX
   8
LEVEL001
   6
CONTINUOUS
  62
7
  10
 99.2294
  20
 118.831
  30
0.0
   0
VERTEX
   8
LEVEL001
   6
CONTINUOUS
  62
7
  10
 98.9440
  20
 120.233
  30
0.0
   0
VERTEX
   8
LEVEL001
   6
CONTINUOUS
  62
7
  10
 98.6175
  20
 121.480
  30
0.0
   0
VERTEX
   8
LEVEL001
   6
CONTINUOUS
  62
7
  10
 98.2550
  20
 122.554
  30
0.0
   0
VERTEX
   8
LEVEL001
   6
CONTINUOUS
  62
7
  10
 97.8621
  20
 123.437
  30
0.0
   0
VERTEX
   8
LEVEL001
   6
CONTINUOUS
  62
7
  10
 97.4450
  20
 124.116
  30
0.0
   0
VERTEX
   8
LEVEL001
   6
CONTINUOUS
  62
7
  10
 97.0103
  20
 124.579
  30
0.0
   0
VERTEX
   8
LEVEL001
   6
CONTINUOUS
  62
7
  10
 96.5645
  20
 124.820
  30
0.0
   0
VERTEX
   8
LEVEL001
   6
CONTINUOUS
  62
7
  10
 96.3099
  20
 124.857
  30
0.0
   0
SEQEND
   0
LINE
   8
LEVEL001
   6
CONTINUOUS
  62
7
  10
 165.159
  20
 80.8529
  30
0.0
  11
 162.206
  21
 114.496
  31
0.0
   0
ARC
   8
LEVEL001
   6
CONTINUOUS
  62
7
  10
 114.390
  20
 110.299
  30
0.0
  40
 48.0001
  50
 5.01622
  51
 42.8565
   0
ARC
   8
LEVEL001
   6
CONTINUOUS
  62
7
  10
 103.790
  20
 96.4987
  30
0.0
  40
 60.0001
  50
 10.0776
  51
 40.0907
   0
LINE
   8
LEVEL001
   6
CONTINUOUS
  62
7
  10
 148.196
  20
 142.753
  30
0.0
  11
 147.330
  21
 117.939
  31
0.0
   0
ARC
   8
LEVEL001
   6
CONTINUOUS
  62
7
  10
 47.3725
  20
 120.862
  30
0.0
  40
 100.000
  50
 346.748
  51
 358.325
   0
ARC
   8
LEVEL001
   6
CONTINUOUS
  62
7
  10
 29.1467
  20
 119.956
  30
0.0
  40
 120.000
  50
 349.428
  51
 359.037
   0
LINE
   8
LEVEL001
   6
CONTINUOUS
  62
7
  10
 149.310
  20
 143.113
  30
0.0
  11
 149.691
  21
 135.139
  31
0.0
   0
LINE
   8
LEVEL001
   6
CONTINUOUS
  62
7
  10
 149.691
  20
 135.139
  30
0.0
  11
 149.130
  21
 117.939
  31
0.0
   0
POLYLINE
   8
LEVEL001
   6
DOT
  62
7
  66
1
  10
0.0
  20
0.0
  30
0.0
  70
0
   0
VERTEX
   8
LEVEL001
   6
DOT
  62
7
  10
 147.710
  20
 54.9387
  30
0.0
   0
VERTEX
   8
LEVEL001
   6
DOT
  62
7
  10
 147.710
  20
 58.1387
  30
0.0
   0
VERTEX
   8
LEVEL001
   6
DOT
  62
7
  10
 142.510
  20
 58.1387
  30
0.0
   0
VERTEX
   8
LEVEL001
   6
DOT
  62
7
  10
 142.510
  20
 54.9387
  30
0.0
   0
SEQEND
   0
POLYLINE
   8
LEVEL001
   6
CONTINUOUS
  62
7
  66
1
  10
0.0
  20
0.0
  30
0.0
  70
0
   0
VERTEX
   8
LEVEL001
   6
CONTINUOUS
  62
7
  10
 140.110
  20
 59.1387
  30
0.0
   0
VERTEX
   8
LEVEL001
   6
CONTINUOUS
  62
7
  10
 140.110
  20
 54.9387
  30
0.0
   0
VERTEX
   8
LEVEL001
   6
CONTINUOUS
  62
7
  10
 150.110
  20
 54.9387
  30
0.0
   0
VERTEX
   8
LEVEL001
   6
CONTINUOUS
  62
7
  10
 150.110
  20
 59.1387
  30
0.0
   0
SEQEND
   0
POLYLINE
   8
LEVEL001
   6
DOT
  62
7
  66
1
  10
0.0
  20
0.0
  30
0.0
  70
0
   0
VERTEX
   8
LEVEL001
   6
DOT
  62
7
  10
 140.110
  20
 59.1387
  30
0.0
   0
VERTEX
   8
LEVEL001
   6
DOT
  62
7
  10
 140.110
  20
 59.9387
  30
0.0
   0
VERTEX
   8
LEVEL001
   6
DOT
  62
7
  10
 150.110
  20
 59.9387
  30
0.0
   0
VERTEX
   8
LEVEL001
   6
DOT
  62
7
  10
 150.110
  20
 59.1387
  30
0.0
   0
SEQEND
   0
LINE
   8
LEVEL001
   6
CONTINUOUS
  62
7
  10
 96.7575
  20
 69.5387
  30
0.0
  11
 96.3099
  21
 69.5387
  31
0.0
   0
LINE
   8
LEVEL001
   6
CONTINUOUS
  62
7
  10
 151.569
  20
 63.9387
  30
0.0
  11
 96.3099
  21
 63.9387
  31
0.0
   0
LINE
   8
LEVEL001
   6
CONTINUOUS
  62
7
  10
 167.710
  20
 74.7387
  30
0.0
  11
 96.3099
  21
 74.7387
  31
0.0
   0
LINE
   8
LEVEL001
   6
DASHDOT
  62
1
  10
 47.5099
  20
 67.6610
  30
0.0
  11
 47.5099
  21
 53.6370
  31
0.0
   0
LINE
   8
LEVEL001
   6
CONTINUOUS
  62
1
  10
 68.3099
  20
 181.075
  30
0.0
  11
 68.3099
  21
 176.145
  31
0.0
   0
LINE
   8
LEVEL001
   6
CONTINUOUS
  62
1
  10
 124.310
  20
 181.075
  30
0.0
  11
 124.310
  21
 176.145
  31
0.0
   0
LINE
   8
LEVEL001
   6
CONTINUOUS
  62
1
  10
 68.3099
  20
 177.145
  30
0.0
  11
 124.310
  21
 177.145
  31
0.0
   0
LINE
   8
LEVEL001
   6
CONTINUOUS
  62
1
  10
 68.3099
  20
 177.145
  30
0.0
  11
 72.3099
  21
 176.618
  31
0.0
   0
LINE
   8
LEVEL001
   6
CONTINUOUS
  62
1
  10
 68.3099
  20
 177.145
  30
0.0
  11
 72.3099
  21
 177.672
  31
0.0
   0
LINE
   8
LEVEL001
   6
CONTINUOUS
  62
1
  10
 124.310
  20
 177.145
  30
0.0
  11
 120.310
  21
 177.672
  31
0.0
   0
LINE
   8
LEVEL001
   6
CONTINUOUS
  62
1
  10
 124.310
  20
 177.145
  30
0.0
  11
 120.310
  21
 176.618
  31
0.0
   0
TEXT
   8
LEVEL001
  62
1
  10
 87.3099
  20
 179.716
  30
0.0
  40
 6.00000
   1
140
   7
STANDARD
  72
1
  11
 96.3099
  21
 179.716
  31
0.0
   0
LINE
   8
LEVEL001
   6
CONTINUOUS
  62
1
  10
 46.9099
  20
 202.742
  30
0.0
  11
 46.9099
  21
 161.145
  31
0.0
   0
LINE
   8
LEVEL001
   6
CONTINUOUS
  62
1
  10
 145.710
  20
 202.742
  30
0.0
  11
 145.710
  21
 161.145
  31
0.0
   0
LINE
   8
LEVEL001
   6
CONTINUOUS
  62
1
  10
 46.9099
  20
 162.145
  30
0.0
  11
 145.710
  21
 162.145
  31
0.0
   0
LINE
   8
LEVEL001
   6
CONTINUOUS
  62
1
  10
 46.9099
  20
 162.145
  30
0.0
  11
 50.9099
  21
 161.618
  31
0.0
   0
LINE
   8
LEVEL001
   6
CONTINUOUS
  62
1
  10
 46.9099
  20
 162.145
  30
0.0
  11
 50.9099
  21
 162.672
  31
0.0
   0
LINE
   8
LEVEL001
   6
CONTINUOUS
  62
1
  10
 145.710
  20
 162.145
  30
0.0
  11
 141.710
  21
 162.672
  31
0.0
   0
LINE
   8
LEVEL001
   6
CONTINUOUS
  62
1
  10
 145.710
  20
 162.145
  30
0.0
  11
 141.710
  21
 161.618
  31
0.0
   0
TEXT
   8
LEVEL001
  62
1
  10
 87.3099
  20
 164.716
  30
0.0
  40
 6.00000
   1
247
   7
STANDARD
  72
1
  11
 96.3099
  21
 164.716
  31
0.0
   0
LINE
   8
LEVEL001
   6
CONTINUOUS
  62
1
  10
 47.5099
  20
 53.1370
  30
0.0
  11
 47.5099
  21
 46.1451
  31
0.0
   0
LINE
   8
LEVEL001
   6
CONTINUOUS
  62
1
  10
 145.110
  20
 53.1370
  30
0.0
  11
 145.110
  21
 46.1451
  31
0.0
   0
LINE
   8
LEVEL001
   6
CONTINUOUS
  62
1
  10
 47.5099
  20
 47.1451
  30
0.0
  11
 145.110
  21
 47.1451
  31
0.0
   0
LINE
   8
LEVEL001
   6
CONTINUOUS
  62
1
  10
 47.5099
  20
 47.1451
  30
0.0
  11
 51.5099
  21
 46.6184
  31
0.0
   0
LINE
   8
LEVEL001
   6
CONTINUOUS
  62
1
  10
 47.5099
  20
 47.1451
  30
0.0
  11
 51.5099
  21
 47.6717
  31
0.0
   0
LINE
   8
LEVEL001
   6
CONTINUOUS
  62
1
  10
 145.110
  20
 47.1451
  30
0.0
  11
 141.110
  21
 47.6717
  31
0.0
   0
LINE
   8
LEVEL001
   6
CONTINUOUS
  62
1
  10
 145.110
  20
 47.1451
  30
0.0
  11
 141.110
  21
 46.6184
  31
0.0
   0
TEXT
   8
LEVEL001
  62
1
  10
 87.3099
  20
 49.7165
  30
0.0
  40
 6.00000
   1
244
   7
STANDARD
  72
1
  11
 96.3099
  21
 49.7165
  31
0.0
   0
LINE
   8
LEVEL001
   6
CONTINUOUS
  62
1
  10
 24.9099
  20
 74.2387
  30
0.0
  11
 24.9099
  21
 31.1451
  31
0.0
   0
LINE
   8
LEVEL001
   6
CONTINUOUS
  62
1
  10
 167.710
  20
 74.2387
  30
0.0
  11
 167.710
  21
 31.1451
  31
0.0
   0
LINE
   8
LEVEL001
   6
CONTINUOUS
  62
1
  10
 24.9099
  20
 32.1451
  30
0.0
  11
 167.710
  21
 32.1451
  31
0.0
   0
LINE
   8
LEVEL001
   6
CONTINUOUS
  62
1
  10
 24.9099
  20
 32.1451
  30
0.0
  11
 28.9099
  21
 31.6184
  31
0.0
   0
LINE
   8
LEVEL001
   6
CONTINUOUS
  62
1
  10
 24.9099
  20
 32.1451
  30
0.0
  11
 28.9099
  21
 32.6717
  31
0.0
   0
LINE
   8
LEVEL001
   6
CONTINUOUS
  62
1
  10
 167.710
  20
 32.1451
  30
0.0
  11
 163.710
  21
 32.6717
  31
0.0
   0
LINE
   8
LEVEL001
   6
CONTINUOUS
  62
1
  10
 167.710
  20
 32.1451
  30
0.0
  11
 163.710
  21
 31.6184
  31
0.0
   0
TEXT
   8
LEVEL001
  62
1
  10
 87.3099
  20
 34.7165
  30
0.0
  40
 6.00000
   1
357
   7
STANDARD
  72
1
  11
 96.3099
  21
 34.7165
  31
0.0
   0
LINE
   8
LEVEL001
   6
CONTINUOUS
  62
1
  10
 145.710
  20
 202.742
  30
0.0
  11
 145.710
  21
 160.145
  31
0.0
   0
LINE
   8
LEVEL001
   6
CONTINUOUS
  62
1
  10
 154.310
  20
 193.535
  30
0.0
  11
 154.310
  21
 160.145
  31
0.0
   0
LINE
   8
LEVEL001
   6
CONTINUOUS
  62
1
  10
 145.710
  20
 162.145
  30
0.0
  11
 154.310
  21
 162.145
  31
0.0
   0
LINE
   8
LEVEL001
   6
CONTINUOUS
  62
1
  10
 154.310
  20
 162.145
  30
0.0
  11
 179.310
  21
 162.145
  31
0.0
   0
LINE
   8
LEVEL001
   6
CONTINUOUS
  62
1
  10
 145.710
  20
 162.145
  30
0.0
  11
 141.710
  21
 162.672
  31
0.0
   0
LINE
   8
LEVEL001
   6
CONTINUOUS
  62
1
  10
 145.710
  20
 162.145
  30
0.0
  11
 141.710
  21
 161.618
  31
0.0
   0
LINE
   8
LEVEL001
   6
CONTINUOUS
  62
1
  10
 154.310
  20
 162.145
  30
0.0
  11
 158.310
  21
 161.618
  31
0.0
   0
LINE
   8
LEVEL001
   6
CONTINUOUS
  62
1
  10
 154.310
  20
 162.145
  30
0.0
  11
 158.310
  21
 162.672
  31
0.0
   0
LINE
   8
LEVEL001
   6
CONTINUOUS
  62
1
  10
 145.710
  20
 162.145
  30
0.0
  11
 140.710
  21
 162.145
  31
0.0
   0
LINE
   8
LEVEL001
   6
CONTINUOUS
  62
1
  10
 154.310
  20
 162.145
  30
0.0
  11
 179.310
  21
 162.145
  31
0.0
   0
TEXT
   8
LEVEL001
  62
1
  10
 158.310
  20
 164.716
  30
0.0
  40
 6.00000
   1
21.5
   7
STANDARD
   0
LINE
   8
LEVEL001
   6
CONTINUOUS
  62
1
  10
 152.110
  20
 54.9387
  30
0.0
  11
 187.310
  21
 54.9387
  31
0.0
   0
LINE
   8
LEVEL001
   6
CONTINUOUS
  62
1
  10
 124.310
  20
 146.139
  30
0.0
  11
 187.310
  21
 146.139
  31
0.0
   0
LINE
   8
LEVEL001
   6
CONTINUOUS
  62
1
  10
 186.310
  20
 54.9387
  30
0.0
  11
 186.310
  21
 146.139
  31
0.0
   0
LINE
   8
LEVEL001
   6
CONTINUOUS
  62
1
  10
 186.310
  20
 54.9387
  30
0.0
  11
 186.836
  21
 58.9387
  31
0.0
   0
LINE
   8
LEVEL001
   6
CONTINUOUS
  62
1
  10
 186.310
  20
 54.9387
  30
0.0
  11
 185.783
  21
 58.9387
  31
0.0
   0
LINE
   8
LEVEL001
   6
CONTINUOUS
  62
1
  10
 186.310
  20
 146.139
  30
0.0
  11
 185.783
  21
 142.139
  31
0.0
   0
LINE
   8
LEVEL001
   6
CONTINUOUS
  62
1
  10
 186.310
  20
 146.139
  30
0.0
  11
 186.836
  21
 142.139
  31
0.0
   0
TEXT
   8
LEVEL001
  62
1
  10
 183.738
  20
 91.5387
  30
0.0
  40
 6.00000
   1
228
  50
 90.0000
   7
STANDARD
  72
1
  11
 183.738
  21
 100.539
  31
0.0
   0
LINE
   8
LEVEL001
   6
CONTINUOUS
  62
1
  10
 131.310
  20
 184.942
  30
0.0
  11
 188.310
  21
 184.942
  31
0.0
   0
LINE
   8
LEVEL001
   6
CONTINUOUS
  62
1
  10
 160.502
  20
 200.142
  30
0.0
  11
 188.310
  21
 200.142
  31
0.0
   0
LINE
   8
LEVEL001
   6
CONTINUOUS
  62
1
  10
 186.310
  20
 184.942
  30
0.0
  11
 186.310
  21
 200.142
  31
0.0
   0
LINE
   8
LEVEL001
   6
CONTINUOUS
  62
1
  10
 186.310
  20
 184.942
  30
0.0
  11
 186.836
  21
 188.942
  31
0.0
   0
LINE
   8
LEVEL001
   6
CONTINUOUS
  62
1
  10
 186.310
  20
 184.942
  30
0.0
  11
 185.783
  21
 188.942
  31
0.0
   0
LINE
   8
LEVEL001
   6
CONTINUOUS
  62
1
  10
 186.310
  20
 200.142
  30
0.0
  11
 185.783
  21
 196.142
  31
0.0
   0
LINE
   8
LEVEL001
   6
CONTINUOUS
  62
1
  10
 186.310
  20
 200.142
  30
0.0
  11
 186.836
  21
 196.142
  31
0.0
   0
TEXT
   8
LEVEL001
  62
1
  10
 183.738
  20
 186.542
  30
0.0
  40
 6.00000
   1
38
  50
 90.0000
   7
STANDARD
  72
1
  11
 183.738
  21
 192.542
  31
0.0
   0
LINE
   8
LEVEL001
   6
CONTINUOUS
  62
1
  10
 155.517
  20
 205.549
  30
0.0
  11
 173.310
  21
 205.549
  31
0.0
   0
LINE
   8
LEVEL001
   6
CONTINUOUS
  62
1
  10
 155.517
  20
 194.735
  30
0.0
  11
 173.310
  21
 194.735
  31
0.0
   0
LINE
   8
LEVEL001
   6
CONTINUOUS
  62
1
  10
 171.310
  20
 205.549
  30
0.0
  11
 171.310
  21
 194.735
  31
0.0
   0
LINE
   8
LEVEL001
   6
CONTINUOUS
  62
1
  10
 171.310
  20
 205.549
  30
0.0
  11
 171.310
  21
 227.145
  31
0.0
   0
LINE
   8
LEVEL001
   6
CONTINUOUS
  62
1
  10
 171.310
  20
 205.549
  30
0.0
  11
 171.836
  21
 209.549
  31
0.0
   0
LINE
   8
LEVEL001
   6
CONTINUOUS
  62
1
  10
 171.310
  20
 205.549
  30
0.0
  11
 170.783
  21
 209.549
  31
0.0
   0
LINE
   8
LEVEL001
   6
CONTINUOUS
  62
1
  10
 171.310
  20
 194.735
  30
0.0
  11
 170.783
  21
 190.735
  31
0.0
   0
LINE
   8
LEVEL001
   6
CONTINUOUS
  62
1
  10
 171.310
  20
 194.735
  30
0.0
  11
 171.836
  21
 190.735
  31
0.0
   0
LINE
   8
LEVEL001
   6
CONTINUOUS
  62
1
  10
 171.310
  20
 205.549
  30
0.0
  11
 171.310
  21
 227.145
  31
0.0
   0
LINE
   8
LEVEL001
   6
CONTINUOUS
  62
1
  10
 171.310
  20
 194.735
  30
0.0
  11
 171.310
  21
 189.735
  31
0.0
   0
TEXT
   8
LEVEL001
  62
1
  10
 168.738
  20
 209.145
  30
0.0
  40
 6.00000
   1
%%c27
  50
 90.0000
   7
STANDARD
   0
ENDSEC
   0
EOF
