   0
SECTION
   2
HEADER
   9
$LIMMIN
  10
0.0
  20
0.0
   9
$LIMMAX
  10
 210.000
  20
 297.000
   9
$EXTMIN
  10
0.0
  20
0.0
   9
$EXTMAX
  10
 210.000
  20
 297.000
   9
$LTSCALE
  40
 5.94000
   0
ENDSEC
   0
SECTION
   2
TABLES
  0
TABLE
  2
LTYPE
 70
    25
  0
LTYPE
  2
CONTINUOUS
 70
    64
  3
Solid line
 72
    65
 73
     0
 40
0.0
  0
LTYPE
  2
BORDER
 70
    64
  3
__ __ . __ __ . __ __ . __ __ . __ __ . __ __ .
 72
    65
 73
     6
 40
1.75
 49
0.5
 49
-0.25
 49
0.5
 49
-0.25
 49
0.0
 49
-0.25
  0
LTYPE
  2
BORDER2
 70
    64
  3
__.__.__.__.__.__.__.__.__.__.__.__.__.__.__.__
 72
    65
 73
     6
 40
0.875
 49
0.25
 49
-0.125
 49
0.25
 49
-0.125
 49
0.0
 49
-0.125
  0
LTYPE
  2
BORDERX2
 70
    64
  3
____  ____  .  ____  ____  .  ____  ____  .  __
 72
    65
 73
     6
 40
3.5
 49
1.0
 49
-0.5
 49
1.0
 49
-0.5
 49
0.0
 49
-0.5
  0
LTYPE
  2
CENTER
 70
    64
  3
____ _ ____ _ ____ _ ____ _ ____ _ ____ _ ____ 
 72
    65
 73
     4
 40
2.0
 49
1.25
 49
-0.25
 49
0.25
 49
-0.25
  0
LTYPE
  2
CENTER2
 70
    64
  3
___ _ ___ _ ___ _ ___ _ ___ _ ___ _ ___ _ ___ _
 72
    65
 73
     4
 40
1.125
 49
0.75
 49
-0.125
 49
0.125
 49
-0.125
  0
LTYPE
  2
CENTERX2
 70
    64
  3
________  __  ________  __  ________  __  _____
 72
    65
 73
     4
 40
4.0
 49
2.5
 49
-0.5
 49
0.5
 49
-0.5
  0
LTYPE
  2
DASHDOT
 70
    64
  3
__ . __ . __ . __ . __ . __ . __ . __ . __ . __
 72
    65
 73
     4
 40
1.0
 49
0.5
 49
-0.25
 49
0.0
 49
-0.25
  0
LTYPE
  2
DASHDOT2
 70
    64
  3
_._._._._._._._._._._._._._._._._._._._._._._._
 72
    65
 73
     4
 40
0.5
 49
0.25
 49
-0.125
 49
0.0
 49
-0.125
  0
LTYPE
  2
DASHDOTX2
 70
    64
  3
____  .  ____  .  ____  .  ____  .  ____  .  __
 72
    65
 73
     4
 40
2.0
 49
1.0
 49
-0.5
 49
0.0
 49
-0.5
  0
LTYPE
  2
DASHED
 70
    64
  3
__ __ __ __ __ __ __ __ __ __ __ __ __ __ __ __
 72
    65
 73
     2
 40
0.75
 49
0.5
 49
-0.25
  0
LTYPE
  2
DASHED2
 70
    64
  3
_ _ _ _ _ _ _ _ _ _ _ _ _ _ _ _ _ _ _ _ _ _ _ _
 72
    65
 73
     2
 40
0.375
 49
0.25
 49
-0.125
  0
LTYPE
  2
DASHEDX2
 70
    64
  3
____  ____  ____  ____  ____  ____  ____  ____ 
 72
    65
 73
     2
 40
1.5
 49
1.0
 49
-0.5
  0
LTYPE
  2
DIVIDE
 70
    64
  3
____ . . ____ . . ____ . . ____ . . ____ . . __
 72
    65
 73
     6
 40
1.25
 49
0.5
 49
-0.25
 49
0.0
 49
-0.25
 49
0.0
 49
-0.25
  0
LTYPE
  2
DIVIDE2
 70
    64
  3
__..__..__..__..__..__..__..__..__..__..__..__.
 72
    65
 73
     6
 40
0.625
 49
0.25
 49
-0.125
 49
0.0
 49
-0.125
 49
0.0
 49
-0.125
  0
LTYPE
  2
DIVIDEX2
 70
    64
  3
________  .  .  ________  .  .  ________  .  . 
 72
    65
 73
     6
 40
2.5
 49
1.0
 49
-0.5
 49
0.0
 49
-0.5
 49
0.0
 49
-0.5
  0
LTYPE
  2
DOT
 70
    64
  3
. . . . . . . . . . . . . . . . . . . . . . . .
 72
    65
 73
     2
 40
0.25
 49
0.0
 49
-0.25
  0
LTYPE
  2
DOT2
 70
    64
  3
...............................................
 72
    65
 73
     2
 40
0.125
 49
0.0
 49
-0.125
  0
LTYPE
  2
DOTX2
 70
    64
  3
.  .  .  .  .  .  .  .  .  .  .  .  .  .  .  . 
 72
    65
 73
     2
 40
0.5
 49
0.0
 49
-0.5
  0
LTYPE
  2
HIDDEN
 70
    64
  3
__ __ __ __ __ __ __ __ __ __ __ __ __ __ __ __
 72
    65
 73
     2
 40
0.375
 49
0.25
 49
-0.125
  0
LTYPE
  2
HIDDEN2
 70
    64
  3
_ _ _ _ _ _ _ _ _ _ _ _ _ _ _ _ _ _ _ _ _ _ _ _
 72
    65
 73
     2
 40
0.1875
 49
0.125
 49
-0.0625
  0
LTYPE
  2
HIDDENX2
 70
    64
  3
____ ____ ____ ____ ____ ____ ____ ____ ____ __
 72
    65
 73
     2
 40
0.75
 49
0.5
 49
-0.25
  0
LTYPE
  2
PHANTOM
 70
    64
  3
______  __  __  ______  __  __  ______  __  __ 
 72
    65
 73
     6
 40
2.5
 49
1.25
 49
-0.25
 49
0.25
 49
-0.25
 49
0.25
 49
-0.25
  0
LTYPE
  2
PHANTOM2
 70
    64
  3
___ _ _ ___ _ _ ___ _ _ ___ _ _ ___ _ _ ___ _ _
 72
    65
 73
     6
 40
1.25
 49
0.625
 49
-0.125
 49
0.125
 49
-0.125
 49
0.125
 49
-0.125
  0
LTYPE
  2
PHANTOMX2
 70
    64
  3
____________    ____    ____    ____________   
 72
    65
 73
     6
 40
5.0
 49
2.5
 49
-0.5
 49
0.5
 49
-0.5
 49
0.5
 49
-0.5
  0
ENDTAB
  0
TABLE
  2
STYLE
 70
     2
  0
STYLE
  2
STANDARD
 70
0
 40
0.0
 41
1.0
 50
0.0
 71
0
 42
0.2
  3
TXT
  4
BIGFONT
  0
STYLE
  2
STANDARD1
 70
     4
 40
0.0
 41
1.0
 50
0.0
 71
     0
 42
0.2
  3
TXT
  4
BIGFONT
  0
ENDTAB
   0
TABLE
   2
LAYER
  70
2
   0
LAYER
   2
0
  70
0
  62
7
   6
CONTINUOUS
   0
LAYER
   2
LEVEL001
  70
0
  62
7
   6
CONTINUOUS
   0
ENDTAB
   0
ENDSEC
   0
SECTION
   2
ENTITIES
   0
ARC
   8
LEVEL001
   6
CONTINUOUS
  62
7
  10
 137.555
  20
 103.357
  30
0.0
  40
 1.00000
  50
 270.000
  51
0.0
   0
LINE
   8
LEVEL001
   6
CONTINUOUS
  62
7
  10
 138.555
  20
 156.357
  30
0.0
  11
 138.555
  21
 103.357
  31
0.0
   0
LINE
   8
LEVEL001
   6
CONTINUOUS
  62
7
  10
 137.555
  20
 102.357
  30
0.0
  11
 135.986
  21
 102.357
  31
0.0
   0
ARC
   8
LEVEL001
   6
CONTINUOUS
  62
7
  10
 135.986
  20
 101.357
  30
0.0
  40
 1.00000
  50
 89.9996
  51
 182.001
   0
ARC
   8
LEVEL001
   6
CONTINUOUS
  62
7
  10
 137.555
  20
 156.357
  30
0.0
  40
 1.00000
  50
0.0
  51
 90.0000
   0
ARC
   8
LEVEL001
   6
CONTINUOUS
  62
7
  10
 69.1243
  20
 101.357
  30
0.0
  40
 1.00000
  50
 358.000
  51
 89.9991
   0
ARC
   8
LEVEL001
   6
CONTINUOUS
  62
7
  10
 67.5551
  20
 103.357
  30
0.0
  40
 1.00000
  50
 180.000
  51
 270.000
   0
LINE
   8
LEVEL001
   6
CONTINUOUS
  62
7
  10
 67.5551
  20
 102.357
  30
0.0
  11
 69.1243
  21
 102.357
  31
0.0
   0
LINE
   8
LEVEL001
   6
CONTINUOUS
  62
7
  10
 66.5551
  20
 156.357
  30
0.0
  11
 66.5551
  21
 103.357
  31
0.0
   0
ARC
   8
LEVEL001
   6
CONTINUOUS
  62
7
  10
 67.5551
  20
 156.357
  30
0.0
  40
 1.00000
  50
 90.0000
  51
 180.000
   0
LINE
   8
LEVEL001
   6
CONTINUOUS
  62
7
  10
 70.0551
  20
 99.3572
  30
0.0
  11
 135.055
  21
 99.3572
  31
0.0
   0
LINE
   8
LEVEL001
   6
CONTINUOUS
  62
7
  10
 70.0551
  20
 99.3572
  30
0.0
  11
 70.1237
  21
 101.322
  31
0.0
   0
ARC
   8
LEVEL001
   6
CONTINUOUS
  62
7
  10
 127.596
  20
 154.357
  30
0.0
  40
 3.00000
  50
 11.3191
  51
 89.9999
   0
LINE
   8
LEVEL001
   6
CONTINUOUS
  62
7
  10
 137.555
  20
 157.357
  30
0.0
  11
 67.5551
  21
 157.357
  31
0.0
   0
ARC
   8
LEVEL001
   6
CONTINUOUS
  62
7
  10
 130.668
  20
 139.008
  30
0.0
  40
 3.00000
  50
 2.00118
  51
 11.3202
   0
LINE
   8
LEVEL001
   6
CONTINUOUS
  62
7
  10
 133.610
  20
 139.597
  30
0.0
  11
 130.538
  21
 154.946
  31
0.0
   0
LINE
   8
LEVEL001
   6
CONTINUOUS
  62
7
  10
 135.055
  20
 99.3572
  30
0.0
  11
 133.667
  21
 139.113
  31
0.0
   0
POLYLINE
   8
LEVEL001
   6
CONTINUOUS
  62
7
  66
1
  10
0.0
  20
0.0
  30
0.0
  70
0
   0
VERTEX
   8
LEVEL001
   6
CONTINUOUS
  62
7
  10
 66.5551
  20
 126.907
  30
0.0
   0
VERTEX
   8
LEVEL001
   6
CONTINUOUS
  62
7
  10
 64.6551
  20
 126.907
  30
0.0
   0
VERTEX
   8
LEVEL001
   6
CONTINUOUS
  62
7
  10
 64.6551
  20
 131.807
  30
0.0
   0
VERTEX
   8
LEVEL001
   6
CONTINUOUS
  62
7
  10
 66.5551
  20
 131.807
  30
0.0
   0
SEQEND
   0
POLYLINE
   8
LEVEL001
   6
CONTINUOUS
  62
7
  66
1
  10
0.0
  20
0.0
  30
0.0
  70
0
   0
VERTEX
   8
LEVEL001
   6
CONTINUOUS
  62
7
  10
 138.555
  20
 126.907
  30
0.0
   0
VERTEX
   8
LEVEL001
   6
CONTINUOUS
  62
7
  10
 140.455
  20
 126.907
  30
0.0
   0
VERTEX
   8
LEVEL001
   6
CONTINUOUS
  62
7
  10
 140.455
  20
 131.807
  30
0.0
   0
VERTEX
   8
LEVEL001
   6
CONTINUOUS
  62
7
  10
 138.555
  20
 131.807
  30
0.0
   0
SEQEND
   0
LINE
   8
LEVEL001
   6
CONTINUOUS
  62
7
  10
 70.0551
  20
 99.3572
  30
0.0
  11
 71.4435
  21
 139.113
  31
0.0
   0
LINE
   8
LEVEL001
   6
CONTINUOUS
  62
7
  10
 71.5000
  20
 139.597
  30
0.0
  11
 74.5725
  21
 154.946
  31
0.0
   0
ARC
   8
LEVEL001
   6
CONTINUOUS
  62
7
  10
 77.5141
  20
 154.357
  30
0.0
  40
 3.00000
  50
 90.0001
  51
 168.681
   0
ARC
   8
LEVEL001
   6
CONTINUOUS
  62
7
  10
 62.5551
  20
 154.357
  30
0.0
  40
 1.00000
  50
 90.0000
  51
 180.000
   0
LINE
   8
LEVEL001
   6
CONTINUOUS
  62
7
  10
 62.5551
  20
 155.357
  30
0.0
  11
 66.5551
  21
 155.357
  31
0.0
   0
ARC
   8
LEVEL001
   6
CONTINUOUS
  62
7
  10
 62.5551
  20
 104.357
  30
0.0
  40
 1.00000
  50
 180.000
  51
 270.000
   0
LINE
   8
LEVEL001
   6
CONTINUOUS
  62
7
  10
 66.5551
  20
 103.357
  30
0.0
  11
 62.5551
  21
 103.357
  31
0.0
   0
LINE
   8
LEVEL001
   6
CONTINUOUS
  62
7
  10
 54.5553
  20
 118.857
  30
0.0
  11
 54.5553
  21
 118.772
  31
0.0
   0
LINE
   8
LEVEL001
   6
CONTINUOUS
  62
7
  10
 61.5550
  20
 131.857
  30
0.0
  11
 66.5551
  21
 131.857
  31
0.0
   0
LINE
   8
LEVEL001
   6
CONTINUOUS
  62
7
  10
 51.5551
  20
 134.357
  30
0.0
  11
 61.5551
  21
 134.357
  31
0.0
   0
ARC
   8
LEVEL001
   6
CONTINUOUS
  62
7
  10
 55.5551
  20
 117.733
  30
0.0
  40
 1.00000
  50
 179.990
  51
 221.186
   0
LINE
   8
LEVEL001
   6
CONTINUOUS
  62
7
  10
 54.5551
  20
 117.733
  30
0.0
  11
 54.5553
  21
 118.857
  31
0.0
   0
ARC
   8
LEVEL001
   6
CONTINUOUS
  62
7
  10
 55.5551
  20
 140.982
  30
0.0
  40
 1.00000
  50
 138.814
  51
 180.009
   0
LINE
   8
LEVEL001
   6
CONTINUOUS
  62
7
  10
 54.5551
  20
 140.981
  30
0.0
  11
 54.5553
  21
 139.857
  31
0.0
   0
LINE
   8
LEVEL001
   6
CONTINUOUS
  62
7
  10
 61.5551
  20
 154.357
  30
0.0
  11
 61.5550
  21
 104.357
  31
0.0
   0
LINE
   8
LEVEL001
   6
CONTINUOUS
  62
7
  10
 66.5551
  20
 103.357
  30
0.0
  11
 66.5551
  21
 155.357
  31
0.0
   0
LINE
   8
LEVEL001
   6
CONTINUOUS
  62
7
  10
 61.5550
  20
 126.857
  30
0.0
  11
 66.5551
  21
 126.857
  31
0.0
   0
LINE
   8
LEVEL001
   6
CONTINUOUS
  62
7
  10
 51.5551
  20
 124.357
  30
0.0
  11
 61.5551
  21
 124.357
  31
0.0
   0
ARC
   8
LEVEL001
   6
CONTINUOUS
  62
7
  10
 51.5551
  20
 129.357
  30
0.0
  40
 5.00000
  50
 90.0000
  51
 270.000
   0
CIRCLE
   8
LEVEL001
   6
CONTINUOUS
  62
7
  10
 51.5551
  20
 129.357
  30
0.0
  40
 4.00000
   0
CIRCLE
   8
LEVEL001
   6
CONTINUOUS
  62
7
  10
 51.5551
  20
 129.357
  30
0.0
  40
 2.50000
   0
POLYLINE
   8
LEVEL001
   6
CONTINUOUS
  62
7
  66
1
  10
0.0
  20
0.0
  30
0.0
  70
0
   0
VERTEX
   8
LEVEL001
   6
CONTINUOUS
  62
7
  10
 61.5551
  20
 139.857
  30
0.0
   0
VERTEX
   8
LEVEL001
   6
CONTINUOUS
  62
7
  10
 45.5551
  20
 139.857
  30
0.0
   0
VERTEX
   8
LEVEL001
   6
CONTINUOUS
  62
7
  10
 45.5551
  20
 118.857
  30
0.0
   0
VERTEX
   8
LEVEL001
   6
CONTINUOUS
  62
7
  10
 61.5550
  20
 118.857
  30
0.0
   0
SEQEND
   0
ARC
   8
LEVEL001
   6
CONTINUOUS
  62
7
  10
 142.555
  20
 154.357
  30
0.0
  40
 1.00000
  50
0.0
  51
 90.0000
   0
LINE
   8
LEVEL001
   6
CONTINUOUS
  62
7
  10
 142.555
  20
 155.357
  30
0.0
  11
 138.555
  21
 155.357
  31
0.0
   0
ARC
   8
LEVEL001
   6
CONTINUOUS
  62
7
  10
 142.555
  20
 104.357
  30
0.0
  40
 1.00000
  50
 270.000
  51
0.0
   0
LINE
   8
LEVEL001
   6
CONTINUOUS
  62
7
  10
 138.555
  20
 103.357
  30
0.0
  11
 142.555
  21
 103.357
  31
0.0
   0
LINE
   8
LEVEL001
   6
CONTINUOUS
  62
7
  10
 150.555
  20
 118.857
  30
0.0
  11
 150.555
  21
 118.772
  31
0.0
   0
LINE
   8
LEVEL001
   6
CONTINUOUS
  62
7
  10
 143.555
  20
 131.857
  30
0.0
  11
 138.555
  21
 131.857
  31
0.0
   0
LINE
   8
LEVEL001
   6
CONTINUOUS
  62
7
  10
 153.555
  20
 134.357
  30
0.0
  11
 143.555
  21
 134.357
  31
0.0
   0
ARC
   8
LEVEL001
   6
CONTINUOUS
  62
7
  10
 149.555
  20
 117.733
  30
0.0
  40
 1.00000
  50
 318.814
  51
 0.989870E-2
   0
LINE
   8
LEVEL001
   6
CONTINUOUS
  62
7
  10
 150.555
  20
 117.733
  30
0.0
  11
 150.555
  21
 118.857
  31
0.0
   0
ARC
   8
LEVEL001
   6
CONTINUOUS
  62
7
  10
 149.555
  20
 140.982
  30
0.0
  40
 1.00000
  50
 359.991
  51
 41.1857
   0
LINE
   8
LEVEL001
   6
CONTINUOUS
  62
7
  10
 150.555
  20
 140.981
  30
0.0
  11
 150.555
  21
 139.857
  31
0.0
   0
LINE
   8
LEVEL001
   6
CONTINUOUS
  62
7
  10
 143.555
  20
 154.357
  30
0.0
  11
 143.555
  21
 104.357
  31
0.0
   0
LINE
   8
LEVEL001
   6
CONTINUOUS
  62
7
  10
 143.555
  20
 126.857
  30
0.0
  11
 138.555
  21
 126.857
  31
0.0
   0
LINE
   8
LEVEL001
   6
CONTINUOUS
  62
7
  10
 153.555
  20
 124.357
  30
0.0
  11
 143.555
  21
 124.357
  31
0.0
   0
ARC
   8
LEVEL001
   6
CONTINUOUS
  62
7
  10
 153.555
  20
 129.357
  30
0.0
  40
 5.00000
  50
 270.000
  51
 90.0000
   0
CIRCLE
   8
LEVEL001
   6
CONTINUOUS
  62
7
  10
 153.555
  20
 129.357
  30
0.0
  40
 4.00000
   0
CIRCLE
   8
LEVEL001
   6
CONTINUOUS
  62
7
  10
 153.555
  20
 129.357
  30
0.0
  40
 2.50000
   0
POLYLINE
   8
LEVEL001
   6
CONTINUOUS
  62
7
  66
1
  10
0.0
  20
0.0
  30
0.0
  70
0
   0
VERTEX
   8
LEVEL001
   6
CONTINUOUS
  62
7
  10
 143.555
  20
 139.857
  30
0.0
   0
VERTEX
   8
LEVEL001
   6
CONTINUOUS
  62
7
  10
 159.555
  20
 139.857
  30
0.0
   0
VERTEX
   8
LEVEL001
   6
CONTINUOUS
  62
7
  10
 159.555
  20
 118.857
  30
0.0
   0
VERTEX
   8
LEVEL001
   6
CONTINUOUS
  62
7
  10
 143.555
  20
 118.857
  30
0.0
   0
SEQEND
   0
ARC
   8
LEVEL001
   6
CONTINUOUS
  62
7
  10
 76.2554
  20
 94.0576
  30
0.0
  40
 0.200000
  50
 180.001
  51
 269.999
   0
ARC
   8
LEVEL001
   6
CONTINUOUS
  62
7
  10
 128.855
  20
 94.0573
  30
0.0
  40
 0.200000
  50
 270.005
  51
0.0
   0
LINE
   8
LEVEL001
   6
CONTINUOUS
  62
7
  10
 128.855
  20
 93.8557
  30
0.0
  11
 76.2554
  21
 93.8576
  31
0.0
   0
LINE
   8
LEVEL001
   6
CONTINUOUS
  62
7
  10
 70.0551
  20
 96.8572
  30
0.0
  11
 70.0551
  21
 99.3572
  31
0.0
   0
LINE
   8
LEVEL001
   6
CONTINUOUS
  62
7
  10
 135.055
  20
 99.3572
  30
0.0
  11
 135.055
  21
 96.8572
  31
0.0
   0
LINE
   8
LEVEL001
   6
CONTINUOUS
  62
7
  10
 70.0551
  20
 99.3572
  30
0.0
  11
 135.055
  21
 99.3572
  31
0.0
   0
LINE
   8
LEVEL001
   6
CONTINUOUS
  62
7
  10
 135.055
  20
 96.8572
  30
0.0
  11
 70.0551
  21
 96.8572
  31
0.0
   0
POLYLINE
   8
LEVEL001
   6
CONTINUOUS
  62
7
  66
1
  10
0.0
  20
0.0
  30
0.0
  70
0
   0
VERTEX
   8
LEVEL001
   6
CONTINUOUS
  62
7
  10
 43.5551
  20
 118.357
  30
0.0
   0
VERTEX
   8
LEVEL001
   6
CONTINUOUS
  62
7
  10
 45.5551
  20
 118.357
  30
0.0
   0
VERTEX
   8
LEVEL001
   6
CONTINUOUS
  62
7
  10
 45.5551
  20
 140.357
  30
0.0
   0
VERTEX
   8
LEVEL001
   6
CONTINUOUS
  62
7
  10
 43.5551
  20
 140.357
  30
0.0
   0
VERTEX
   8
LEVEL001
   6
CONTINUOUS
  62
7
  10
 43.5551
  20
 118.357
  30
0.0
   0
SEQEND
   0
POLYLINE
   8
LEVEL001
   6
CONTINUOUS
  62
7
  66
1
  10
0.0
  20
0.0
  30
0.0
  70
0
   0
VERTEX
   8
LEVEL001
   6
CONTINUOUS
  62
7
  10
 161.555
  20
 118.357
  30
0.0
   0
VERTEX
   8
LEVEL001
   6
CONTINUOUS
  62
7
  10
 159.555
  20
 118.357
  30
0.0
   0
VERTEX
   8
LEVEL001
   6
CONTINUOUS
  62
7
  10
 159.555
  20
 140.357
  30
0.0
   0
VERTEX
   8
LEVEL001
   6
CONTINUOUS
  62
7
  10
 161.555
  20
 140.357
  30
0.0
   0
VERTEX
   8
LEVEL001
   6
CONTINUOUS
  62
7
  10
 161.555
  20
 118.357
  30
0.0
   0
SEQEND
   0
POLYLINE
   8
LEVEL001
   6
CONTINUOUS
  62
7
  66
1
  10
0.0
  20
0.0
  30
0.0
  70
0
   0
VERTEX
   8
LEVEL001
   6
CONTINUOUS
  62
7
  10
 78.0552
  20
 87.8572
  30
0.0
   0
VERTEX
   8
LEVEL001
   6
CONTINUOUS
  62
7
  10
 90.0552
  20
 87.8572
  30
0.0
   0
VERTEX
   8
LEVEL001
   6
CONTINUOUS
  62
7
  10
 90.0552
  20
 89.3572
  30
0.0
   0
VERTEX
   8
LEVEL001
   6
CONTINUOUS
  62
7
  10
 78.0552
  20
 89.3572
  30
0.0
   0
VERTEX
   8
LEVEL001
   6
CONTINUOUS
  62
7
  10
 78.0552
  20
 87.8572
  30
0.0
   0
SEQEND
   0
LINE
   8
LEVEL001
   6
CONTINUOUS
  62
7
  10
 78.0552
  20
 89.3572
  30
0.0
  11
 79.8826
  21
 89.9981
  31
0.0
   0
LINE
   8
LEVEL001
   6
CONTINUOUS
  62
7
  10
 90.0552
  20
 89.3572
  30
0.0
  11
 88.2278
  21
 89.9981
  31
0.0
   0
LINE
   8
LEVEL001
   6
CONTINUOUS
  62
7
  10
 80.8052
  20
 87.8572
  30
0.0
  11
 80.8052
  21
 85.8572
  31
0.0
   0
LINE
   8
LEVEL001
   6
CONTINUOUS
  62
7
  10
 87.3052
  20
 87.8572
  30
0.0
  11
 87.3052
  21
 85.8572
  31
0.0
   0
POLYLINE
   8
LEVEL001
   6
CONTINUOUS
  62
7
  66
1
  10
0.0
  20
0.0
  30
0.0
  70
0
   0
VERTEX
   8
LEVEL001
   6
CONTINUOUS
  62
7
  10
 80.0552
  20
 83.8572
  30
0.0
   0
VERTEX
   8
LEVEL001
   6
CONTINUOUS
  62
7
  10
 88.0552
  20
 83.8572
  30
0.0
   0
VERTEX
   8
LEVEL001
   6
CONTINUOUS
  62
7
  10
 88.0552
  20
 85.8572
  30
0.0
   0
VERTEX
   8
LEVEL001
   6
CONTINUOUS
  62
7
  10
 80.0552
  20
 85.8572
  30
0.0
   0
VERTEX
   8
LEVEL001
   6
CONTINUOUS
  62
7
  10
 80.0552
  20
 83.8572
  30
0.0
   0
SEQEND
   0
ARC
   8
LEVEL001
   6
CONTINUOUS
  62
7
  10
 68.0552
  20
 76.6461
  30
0.0
  40
 14.0000
  50
0.0
  51
 31.0027
   0
ARC
   8
LEVEL001
   6
CONTINUOUS
  62
7
  10
 100.055
  20
 76.6461
  30
0.0
  40
 14.0000
  50
 148.997
  51
 180.000
   0
LINE
   8
LEVEL001
   6
CONTINUOUS
  62
7
  10
 82.0552
  20
 76.6461
  30
0.0
  11
 82.0552
  21
 73.3572
  31
0.0
   0
LINE
   8
LEVEL001
   6
CONTINUOUS
  62
7
  10
 86.0552
  20
 76.6461
  30
0.0
  11
 86.0552
  21
 73.3572
  31
0.0
   0
LINE
   8
LEVEL001
   6
CONTINUOUS
  62
7
  10
 85.5552
  20
 72.8572
  30
0.0
  11
 86.0552
  21
 73.3572
  31
0.0
   0
LINE
   8
LEVEL001
   6
CONTINUOUS
  62
7
  10
 82.0552
  20
 73.3572
  30
0.0
  11
 82.5552
  21
 72.8572
  31
0.0
   0
LINE
   8
LEVEL001
   6
CONTINUOUS
  62
7
  10
 82.5552
  20
 72.8572
  30
0.0
  11
 85.5552
  21
 72.8572
  31
0.0
   0
POLYLINE
   8
LEVEL001
   6
CONTINUOUS
  62
7
  66
1
  10
0.0
  20
0.0
  30
0.0
  70
0
   0
VERTEX
   8
LEVEL001
   6
CONTINUOUS
  62
7
  10
 115.055
  20
 87.8572
  30
0.0
   0
VERTEX
   8
LEVEL001
   6
CONTINUOUS
  62
7
  10
 127.055
  20
 87.8572
  30
0.0
   0
VERTEX
   8
LEVEL001
   6
CONTINUOUS
  62
7
  10
 127.055
  20
 89.3572
  30
0.0
   0
VERTEX
   8
LEVEL001
   6
CONTINUOUS
  62
7
  10
 115.055
  20
 89.3572
  30
0.0
   0
VERTEX
   8
LEVEL001
   6
CONTINUOUS
  62
7
  10
 115.055
  20
 87.8572
  30
0.0
   0
SEQEND
   0
LINE
   8
LEVEL001
   6
CONTINUOUS
  62
7
  10
 115.055
  20
 89.3572
  30
0.0
  11
 116.883
  21
 89.9981
  31
0.0
   0
LINE
   8
LEVEL001
   6
CONTINUOUS
  62
7
  10
 127.055
  20
 89.3572
  30
0.0
  11
 125.228
  21
 89.9981
  31
0.0
   0
LINE
   8
LEVEL001
   6
CONTINUOUS
  62
7
  10
 117.805
  20
 87.8572
  30
0.0
  11
 117.805
  21
 85.8572
  31
0.0
   0
LINE
   8
LEVEL001
   6
CONTINUOUS
  62
7
  10
 124.305
  20
 87.8572
  30
0.0
  11
 124.305
  21
 85.8572
  31
0.0
   0
POLYLINE
   8
LEVEL001
   6
CONTINUOUS
  62
7
  66
1
  10
0.0
  20
0.0
  30
0.0
  70
0
   0
VERTEX
   8
LEVEL001
   6
CONTINUOUS
  62
7
  10
 117.055
  20
 83.8572
  30
0.0
   0
VERTEX
   8
LEVEL001
   6
CONTINUOUS
  62
7
  10
 125.055
  20
 83.8572
  30
0.0
   0
VERTEX
   8
LEVEL001
   6
CONTINUOUS
  62
7
  10
 125.055
  20
 85.8572
  30
0.0
   0
VERTEX
   8
LEVEL001
   6
CONTINUOUS
  62
7
  10
 117.055
  20
 85.8572
  30
0.0
   0
VERTEX
   8
LEVEL001
   6
CONTINUOUS
  62
7
  10
 117.055
  20
 83.8572
  30
0.0
   0
SEQEND
   0
ARC
   8
LEVEL001
   6
CONTINUOUS
  62
7
  10
 105.055
  20
 76.6461
  30
0.0
  40
 14.0000
  50
 0.581587E-13
  51
 31.0027
   0
ARC
   8
LEVEL001
   6
CONTINUOUS
  62
7
  10
 137.055
  20
 76.6461
  30
0.0
  40
 14.0000
  50
 148.997
  51
 180.000
   0
LINE
   8
LEVEL001
   6
CONTINUOUS
  62
7
  10
 119.055
  20
 76.6461
  30
0.0
  11
 119.055
  21
 73.3572
  31
0.0
   0
LINE
   8
LEVEL001
   6
CONTINUOUS
  62
7
  10
 123.055
  20
 76.6461
  30
0.0
  11
 123.055
  21
 73.3572
  31
0.0
   0
LINE
   8
LEVEL001
   6
CONTINUOUS
  62
7
  10
 122.555
  20
 72.8572
  30
0.0
  11
 123.055
  21
 73.3572
  31
0.0
   0
LINE
   8
LEVEL001
   6
CONTINUOUS
  62
7
  10
 119.055
  20
 73.3572
  30
0.0
  11
 119.555
  21
 72.8572
  31
0.0
   0
LINE
   8
LEVEL001
   6
CONTINUOUS
  62
7
  10
 119.555
  20
 72.8572
  30
0.0
  11
 122.555
  21
 72.8572
  31
0.0
   0
ARC
   8
LEVEL001
   6
CONTINUOUS
  62
7
  10
 89.0552
  20
 92.3572
  30
0.0
  40
 2.50000
  50
 143.129
  51
 250.674
   0
ARC
   8
LEVEL001
   6
CONTINUOUS
  62
7
  10
 79.0552
  20
 92.3572
  30
0.0
  40
 2.50000
  50
 289.326
  51
 36.8771
   0
ARC
   8
LEVEL001
   6
CONTINUOUS
  62
7
  10
 126.055
  20
 92.3572
  30
0.0
  40
 2.50000
  50
 143.168
  51
 250.674
   0
ARC
   8
LEVEL001
   6
CONTINUOUS
  62
7
  10
 116.055
  20
 92.3572
  30
0.0
  40
 2.50000
  50
 289.326
  51
 36.8384
   0
LINE
   8
LEVEL001
   6
CONTINUOUS
  62
7
  10
 74.5725
  20
 139.357
  30
0.0
  11
 130.538
  21
 139.357
  31
0.0
   0
LINE
   8
LEVEL001
   6
CONTINUOUS
  62
7
  10
 61.5550
  20
 153.357
  30
0.0
  11
 60.5014
  21
 153.265
  31
0.0
   0
ARC
   8
LEVEL001
   6
CONTINUOUS
  62
7
  10
 67.2551
  20
 150.357
  30
0.0
  40
 8.00000
  50
 164.775
  51
 195.225
   0
ARC
   8
LEVEL001
   6
CONTINUOUS
  62
7
  10
 60.5973
  20
 152.169
  30
0.0
  40
 1.10000
  50
 94.9987
  51
 164.775
   0
LINE
   8
LEVEL001
   6
CONTINUOUS
  62
7
  10
 61.5550
  20
 147.357
  30
0.0
  11
 60.5014
  21
 147.449
  31
0.0
   0
ARC
   8
LEVEL001
   6
CONTINUOUS
  62
7
  10
 60.5973
  20
 148.545
  30
0.0
  40
 1.10000
  50
 195.223
  51
 264.999
   0
ARC
   8
LEVEL001
   6
CONTINUOUS
  62
7
  10
 67.2551
  20
 108.357
  30
0.0
  40
 8.00000
  50
 164.775
  51
 195.225
   0
ARC
   8
LEVEL001
   6
CONTINUOUS
  62
7
  10
 60.5973
  20
 106.545
  30
0.0
  40
 1.10000
  50
 195.223
  51
 264.999
   0
LINE
   8
LEVEL001
   6
CONTINUOUS
  62
7
  10
 61.5550
  20
 105.357
  30
0.0
  11
 60.5014
  21
 105.449
  31
0.0
   0
LINE
   8
LEVEL001
   6
CONTINUOUS
  62
7
  10
 61.5550
  20
 111.357
  30
0.0
  11
 60.5014
  21
 111.265
  31
0.0
   0
ARC
   8
LEVEL001
   6
CONTINUOUS
  62
7
  10
 60.5973
  20
 110.169
  30
0.0
  40
 1.10000
  50
 94.9987
  51
 164.775
   0
LINE
   8
LEVEL001
   6
CONTINUOUS
  62
7
  10
 143.555
  20
 153.357
  30
0.0
  11
 144.609
  21
 153.265
  31
0.0
   0
LINE
   8
LEVEL001
   6
CONTINUOUS
  62
7
  10
 143.555
  20
 147.357
  30
0.0
  11
 144.609
  21
 147.449
  31
0.0
   0
ARC
   8
LEVEL001
   6
CONTINUOUS
  62
7
  10
 137.855
  20
 150.357
  30
0.0
  40
 8.00000
  50
 344.775
  51
 15.2250
   0
ARC
   8
LEVEL001
   6
CONTINUOUS
  62
7
  10
 144.513
  20
 152.169
  30
0.0
  40
 1.10000
  50
 15.2250
  51
 85.0013
   0
ARC
   8
LEVEL001
   6
CONTINUOUS
  62
7
  10
 144.513
  20
 148.545
  30
0.0
  40
 1.10000
  50
 275.001
  51
 344.777
   0
ARC
   8
LEVEL001
   6
CONTINUOUS
  62
7
  10
 144.513
  20
 106.545
  30
0.0
  40
 1.10000
  50
 275.001
  51
 344.777
   0
LINE
   8
LEVEL001
   6
CONTINUOUS
  62
7
  10
 143.555
  20
 105.357
  30
0.0
  11
 144.609
  21
 105.449
  31
0.0
   0
ARC
   8
LEVEL001
   6
CONTINUOUS
  62
7
  10
 137.855
  20
 108.357
  30
0.0
  40
 8.00000
  50
 344.775
  51
 15.2250
   0
ARC
   8
LEVEL001
   6
CONTINUOUS
  62
7
  10
 144.513
  20
 110.169
  30
0.0
  40
 1.10000
  50
 15.2250
  51
 85.0013
   0
LINE
   8
LEVEL001
   6
CONTINUOUS
  62
7
  10
 143.555
  20
 111.357
  30
0.0
  11
 144.609
  21
 111.265
  31
0.0
   0
LINE
   8
LEVEL001
   6
CONTINUOUS
  62
7
  10
 60.0234
  20
 147.607
  30
0.0
  11
 54.8026
  21
 141.640
  31
0.0
   0
LINE
   8
LEVEL001
   6
CONTINUOUS
  62
7
  10
 60.0234
  20
 111.108
  30
0.0
  11
 54.8026
  21
 117.074
  31
0.0
   0
LINE
   8
LEVEL001
   6
CONTINUOUS
  62
7
  10
 145.087
  20
 111.108
  30
0.0
  11
 150.308
  21
 117.074
  31
0.0
   0
LINE
   8
LEVEL001
   6
CONTINUOUS
  62
7
  10
 145.087
  20
 147.607
  30
0.0
  11
 150.308
  21
 141.640
  31
0.0
   0
LINE
   8
LEVEL001
   6
CONTINUOUS
  62
7
  10
 72.0550
  20
 96.8571
  30
0.0
  11
 72.1472
  21
 95.8035
  31
0.0
   0
ARC
   8
LEVEL001
   6
CONTINUOUS
  62
7
  10
 73.2430
  20
 95.8994
  30
0.0
  40
 1.10000
  50
 185.001
  51
 254.777
   0
ARC
   8
LEVEL001
   6
CONTINUOUS
  62
7
  10
 75.0551
  20
 102.557
  30
0.0
  40
 8.00000
  50
 254.775
  51
 285.225
   0
ARC
   8
LEVEL001
   6
CONTINUOUS
  62
7
  10
 76.8671
  20
 95.8994
  30
0.0
  40
 1.10000
  50
 285.225
  51
 355.001
   0
LINE
   8
LEVEL001
   6
CONTINUOUS
  62
7
  10
 78.0550
  20
 96.8571
  30
0.0
  11
 77.9629
  21
 95.8035
  31
0.0
   0
LINE
   8
LEVEL001
   6
CONTINUOUS
  62
7
  10
 76.0564
  20
 94.0576
  30
0.0
  11
 76.0561
  21
 94.6201
  31
0.0
   0
LINE
   8
LEVEL001
   6
CONTINUOUS
  62
7
  10
 133.055
  20
 96.8571
  30
0.0
  11
 132.963
  21
 95.8035
  31
0.0
   0
ARC
   8
LEVEL001
   6
CONTINUOUS
  62
7
  10
 131.867
  20
 95.8994
  30
0.0
  40
 1.10000
  50
 285.223
  51
 354.999
   0
ARC
   8
LEVEL001
   6
CONTINUOUS
  62
7
  10
 130.055
  20
 102.557
  30
0.0
  40
 8.00000
  50
 254.775
  51
 285.225
   0
ARC
   8
LEVEL001
   6
CONTINUOUS
  62
7
  10
 128.243
  20
 95.8994
  30
0.0
  40
 1.10000
  50
 184.999
  51
 254.775
   0
LINE
   8
LEVEL001
   6
CONTINUOUS
  62
7
  10
 127.055
  20
 96.8571
  30
0.0
  11
 127.147
  21
 95.8035
  31
0.0
   0
LINE
   8
LEVEL001
   6
CONTINUOUS
  62
7
  10
 129.055
  20
 94.0573
  30
0.0
  11
 129.055
  21
 94.6200
  31
0.0
   0
LINE
   8
LEVEL001
   6
DASHDOT
  62
1
  10
 84.0552
  20
 99.3572
  30
0.0
  11
 84.0552
  21
 70.9411
  31
0.0
   0
LINE
   8
LEVEL001
   6
DASHDOT
  62
1
  10
 121.055
  20
 99.3572
  30
0.0
  11
 121.055
  21
 70.9411
  31
0.0
   0
LINE
   8
LEVEL001
   6
DASHDOT
  62
1
  10
 146.555
  20
 129.357
  30
0.0
  11
 160.555
  21
 129.357
  31
0.0
   0
LINE
   8
LEVEL001
   6
DASHDOT
  62
1
  10
 153.555
  20
 136.357
  30
0.0
  11
 153.555
  21
 122.357
  31
0.0
   0
LINE
   8
LEVEL001
   6
DASHDOT
  62
1
  10
 44.5551
  20
 129.357
  30
0.0
  11
 58.5551
  21
 129.357
  31
0.0
   0
LINE
   8
LEVEL001
   6
DASHDOT
  62
1
  10
 51.5551
  20
 136.357
  30
0.0
  11
 51.5551
  21
 122.357
  31
0.0
   0
ARC
   8
LEVEL001
   6
CONTINUOUS
  62
7
  10
 81.5551
  20
 233.357
  30
0.0
  40
 6.00000
  50
 180.000
  51
 270.000
   0
LINE
   8
LEVEL001
   6
CONTINUOUS
  62
7
  10
 81.5551
  20
 227.357
  30
0.0
  11
 123.555
  21
 227.357
  31
0.0
   0
ARC
   8
LEVEL001
   6
CONTINUOUS
  62
7
  10
 128.555
  20
 281.357
  30
0.0
  40
 1.00000
  50
 0.651378E-11
  51
 90.0000
   0
ARC
   8
LEVEL001
   6
CONTINUOUS
  62
7
  10
 76.5551
  20
 281.357
  30
0.0
  40
 1.00000
  50
 90.0000
  51
 180.000
   0
ARC
   8
LEVEL001
   6
CONTINUOUS
  62
7
  10
 73.5551
  20
 266.482
  30
0.0
  40
 2.00000
  50
 300.000
  51
 0.139128E-3
   0
LINE
   8
LEVEL001
   6
CONTINUOUS
  62
7
  10
 75.5551
  20
 266.482
  30
0.0
  11
 75.5551
  21
 281.357
  31
0.0
   0
ARC
   8
LEVEL001
   6
CONTINUOUS
  62
7
  10
 73.5551
  20
 242.233
  30
0.0
  40
 2.00000
  50
0.0
  51
 60.0000
   0
LINE
   8
LEVEL001
   6
CONTINUOUS
  62
7
  10
 75.5551
  20
 233.357
  30
0.0
  11
 75.5551
  21
 242.233
  31
0.0
   0
ARC
   8
LEVEL001
   6
CONTINUOUS
  62
7
  10
 60.0141
  20
 279.357
  30
0.0
  40
 3.00000
  50
 90.0001
  51
 168.680
   0
ARC
   8
LEVEL001
   6
CONTINUOUS
  62
7
  10
 145.096
  20
 279.357
  30
0.0
  40
 3.00000
  50
 11.3200
  51
 89.9999
   0
LINE
   8
LEVEL001
   6
CONTINUOUS
  62
7
  10
 145.096
  20
 282.357
  30
0.0
  11
 60.0141
  21
 282.357
  31
0.0
   0
LINE
   8
LEVEL001
   6
CONTINUOUS
  62
7
  10
 130.095
  20
 264.357
  30
0.0
  11
 150.488
  21
 264.357
  31
0.0
   0
LINE
   8
LEVEL001
   6
CONTINUOUS
  62
7
  10
 54.6230
  20
 264.357
  30
0.0
  11
 73.4391
  21
 264.357
  31
0.0
   0
ARC
   8
LEVEL001
   6
CONTINUOUS
  62
7
  10
 148.169
  20
 264.008
  30
0.0
  40
 3.00000
  50
 2.00188
  51
 11.3218
   0
LINE
   8
LEVEL001
   6
CONTINUOUS
  62
7
  10
 151.110
  20
 264.597
  30
0.0
  11
 148.038
  21
 279.946
  31
0.0
   0
LINE
   8
LEVEL001
   6
CONTINUOUS
  62
7
  10
 152.555
  20
 224.357
  30
0.0
  11
 151.167
  21
 264.113
  31
0.0
   0
ARC
   8
LEVEL001
   6
CONTINUOUS
  62
7
  10
 56.9414
  20
 264.008
  30
0.0
  40
 3.00000
  50
 168.678
  51
 177.998
   0
LINE
   8
LEVEL001
   6
CONTINUOUS
  62
7
  10
 53.9433
  20
 264.113
  30
0.0
  11
 52.5551
  21
 224.357
  31
0.0
   0
LINE
   8
LEVEL001
   6
CONTINUOUS
  62
7
  10
 53.9998
  20
 264.597
  30
0.0
  11
 57.0724
  21
 279.946
  31
0.0
   0
ARC
   8
LEVEL001
   6
CONTINUOUS
  62
7
  10
 123.555
  20
 233.357
  30
0.0
  40
 6.00000
  50
 270.000
  51
0.0
   0
ARC
   8
LEVEL001
   6
CONTINUOUS
  62
7
  10
 123.555
  20
 275.357
  30
0.0
  40
 5.00000
  50
0.0
  51
 90.0000
   0
LINE
   8
LEVEL001
   6
CONTINUOUS
  62
7
  10
 123.555
  20
 280.357
  30
0.0
  11
 81.5551
  21
 280.357
  31
0.0
   0
ARC
   8
LEVEL001
   6
CONTINUOUS
  62
7
  10
 81.5551
  20
 275.357
  30
0.0
  40
 5.00000
  50
 90.0000
  51
 180.000
   0
ARC
   8
LEVEL001
   6
CONTINUOUS
  62
7
  10
 81.5551
  20
 233.357
  30
0.0
  40
 5.00000
  50
 180.000
  51
 270.000
   0
LINE
   8
LEVEL001
   6
CONTINUOUS
  62
7
  10
 81.5551
  20
 228.357
  30
0.0
  11
 123.555
  21
 228.357
  31
0.0
   0
ARC
   8
LEVEL001
   6
CONTINUOUS
  62
7
  10
 123.555
  20
 233.357
  30
0.0
  40
 5.00000
  50
 270.000
  51
 0.272276E-9
   0
LINE
   8
LEVEL001
   6
CONTINUOUS
  62
7
  10
 128.555
  20
 233.357
  30
0.0
  11
 128.555
  21
 250.357
  31
0.0
   0
LINE
   8
LEVEL001
   6
CONTINUOUS
  62
7
  10
 128.555
  20
 258.357
  30
0.0
  11
 128.555
  21
 275.357
  31
0.0
   0
ARC
   8
LEVEL001
   6
CONTINUOUS
  62
7
  10
 134.555
  20
 257.357
  30
0.0
  40
 1.00000
  50
0.0
  51
 90.0000
   0
LINE
   8
LEVEL001
   6
CONTINUOUS
  62
7
  10
 134.555
  20
 258.357
  30
0.0
  11
 125.555
  21
 258.357
  31
0.0
   0
ARC
   8
LEVEL001
   6
CONTINUOUS
  62
7
  10
 134.556
  20
 251.357
  30
0.0
  40
 1.00000
  50
 270.000
  51
0.0
   0
LINE
   8
LEVEL001
   6
CONTINUOUS
  62
7
  10
 135.556
  20
 251.357
  30
0.0
  11
 135.555
  21
 257.357
  31
0.0
   0
LINE
   8
LEVEL001
   6
CONTINUOUS
  62
7
  10
 125.555
  20
 250.357
  30
0.0
  11
 134.556
  21
 250.357
  31
0.0
   0
LINE
   8
LEVEL001
   6
CONTINUOUS
  62
7
  10
 76.5551
  20
 275.357
  30
0.0
  11
 76.5551
  21
 264.713
  31
0.0
   0
LINE
   8
LEVEL001
   6
CONTINUOUS
  62
7
  10
 76.5551
  20
 244.001
  30
0.0
  11
 76.5551
  21
 233.357
  31
0.0
   0
LINE
   8
LEVEL001
   6
CONTINUOUS
  62
7
  10
 69.0565
  20
 250.357
  30
0.0
  11
 69.0569
  21
 258.357
  31
0.0
   0
ARC
   8
LEVEL001
   6
CONTINUOUS
  62
7
  10
 61.5551
  20
 251.857
  30
0.0
  40
 0.500000
  50
 179.998
  51
 270.010
   0
LINE
   8
LEVEL001
   6
CONTINUOUS
  62
7
  10
 69.0566
  20
 251.359
  30
0.0
  11
 61.5552
  21
 251.357
  31
0.0
   0
ARC
   8
LEVEL001
   6
CONTINUOUS
  62
7
  10
 61.5551
  20
 256.857
  30
0.0
  40
 0.500000
  50
 89.9895
  51
 179.999
   0
LINE
   8
LEVEL001
   6
CONTINUOUS
  62
7
  10
 61.5552
  20
 257.357
  30
0.0
  11
 69.0569
  21
 257.355
  31
0.0
   0
LINE
   8
LEVEL001
   6
CONTINUOUS
  62
7
  10
 61.0551
  20
 251.857
  30
0.0
  11
 61.0551
  21
 256.857
  31
0.0
   0
LINE
   8
LEVEL001
   6
CONTINUOUS
  62
7
  10
 129.555
  20
 258.357
  30
0.0
  11
 129.555
  21
 281.357
  31
0.0
   0
LINE
   8
LEVEL001
   6
CONTINUOUS
  62
7
  10
 129.555
  20
 233.357
  30
0.0
  11
 129.555
  21
 250.357
  31
0.0
   0
ARC
   8
LEVEL001
   6
CONTINUOUS
  62
7
  10
 80.5551
  20
 254.357
  30
0.0
  40
 12.0000
  50
 163.372
  51
 165.531
   0
ARC
   8
LEVEL001
   6
CONTINUOUS
  62
7
  10
 80.5551
  20
 254.357
  30
0.0
  40
 12.0000
  50
 120.000
  51
 160.529
   0
ARC
   8
LEVEL001
   6
CONTINUOUS
  62
7
  10
 80.5551
  20
 254.357
  30
0.0
  40
 12.0000
  50
 199.471
  51
 240.000
   0
ARC
   8
LEVEL001
   6
CONTINUOUS
  62
7
  10
 80.5551
  20
 254.357
  30
0.0
  40
 12.0000
  50
 194.470
  51
 196.622
   0
ARC
   8
LEVEL001
   6
CONTINUOUS
  62
7
  10
 80.5551
  20
 254.357
  30
0.0
  40
 11.0000
  50
 90.0000
  51
 270.000
   0
ARC
   8
LEVEL001
   6
CONTINUOUS
  62
7
  10
 114.055
  20
 254.357
  30
0.0
  40
 11.0000
  50
 270.000
  51
 90.0000
   0
LINE
   8
LEVEL001
   6
CONTINUOUS
  62
7
  10
 80.5551
  20
 243.357
  30
0.0
  11
 114.055
  21
 243.357
  31
0.0
   0
LINE
   8
LEVEL001
   6
CONTINUOUS
  62
7
  10
 80.5551
  20
 265.357
  30
0.0
  11
 114.055
  21
 265.357
  31
0.0
   0
ARC
   8
LEVEL001
   6
CONTINUOUS
  62
7
  10
 80.5551
  20
 254.357
  30
0.0
  40
 5.00000
  50
 90.0000
  51
 270.000
   0
ARC
   8
LEVEL001
   6
CONTINUOUS
  62
7
  10
 114.055
  20
 254.357
  30
0.0
  40
 5.00000
  50
 270.000
  51
 90.0000
   0
ARC
   8
LEVEL001
   6
CONTINUOUS
  62
7
  10
 107.855
  20
 250.357
  30
0.0
  40
 1.00000
  50
 180.000
  51
 270.000
   0
LINE
   8
LEVEL001
   6
CONTINUOUS
  62
7
  10
 106.855
  20
 250.357
  30
0.0
  11
 106.855
  21
 258.357
  31
0.0
   0
ARC
   8
LEVEL001
   6
CONTINUOUS
  62
7
  10
 107.855
  20
 258.357
  30
0.0
  40
 1.00000
  50
 90.0000
  51
 180.000
   0
ARC
   8
LEVEL001
   6
CONTINUOUS
  62
7
  10
 97.2551
  20
 250.357
  30
0.0
  40
 1.00000
  50
 270.000
  51
 0.781653E-10
   0
LINE
   8
LEVEL001
   6
CONTINUOUS
  62
7
  10
 98.2551
  20
 250.357
  30
0.0
  11
 98.2551
  21
 258.357
  31
0.0
   0
ARC
   8
LEVEL001
   6
CONTINUOUS
  62
7
  10
 97.2551
  20
 258.357
  30
0.0
  40
 1.00000
  50
0.0
  51
 90.0000
   0
LINE
   8
LEVEL001
   6
CONTINUOUS
  62
7
  10
 80.5551
  20
 249.357
  30
0.0
  11
 97.2551
  21
 249.357
  31
0.0
   0
LINE
   8
LEVEL001
   6
CONTINUOUS
  62
7
  10
 97.2551
  20
 259.357
  30
0.0
  11
 80.5551
  21
 259.357
  31
0.0
   0
LINE
   8
LEVEL001
   6
CONTINUOUS
  62
7
  10
 107.855
  20
 249.357
  30
0.0
  11
 114.055
  21
 249.357
  31
0.0
   0
LINE
   8
LEVEL001
   6
CONTINUOUS
  62
7
  10
 114.055
  20
 259.357
  30
0.0
  11
 107.855
  21
 259.357
  31
0.0
   0
LINE
   8
LEVEL001
   6
CONTINUOUS
  62
7
  10
 69.0551
  20
 258.357
  30
0.0
  11
 70.3081
  21
 258.357
  31
0.0
   0
LINE
   8
LEVEL001
   6
CONTINUOUS
  62
7
  10
 69.0551
  20
 250.357
  30
0.0
  11
 70.3081
  21
 250.357
  31
0.0
   0
ARC
   8
LEVEL001
   6
CONTINUOUS
  62
7
  10
 75.5551
  20
 244.001
  30
0.0
  40
 1.00000
  50
0.0
  51
 6.40988
   0
ARC
   8
LEVEL001
   6
CONTINUOUS
  62
7
  10
 102.555
  20
 254.357
  30
0.0
  40
 12.0000
  50
 246.443
  51
 293.557
   0
ARC
   8
LEVEL001
   6
CONTINUOUS
  62
7
  10
 102.555
  20
 254.357
  30
0.0
  40
 12.0000
  50
 66.4436
  51
 113.556
   0
ARC
   8
LEVEL001
   6
CONTINUOUS
  62
7
  10
 102.555
  20
 254.357
  30
0.0
  40
 20.0000
  50
 26.6170
  51
 146.633
   0
ARC
   8
LEVEL001
   6
CONTINUOUS
  62
7
  10
 102.555
  20
 254.357
  30
0.0
  40
 20.0000
  50
 213.367
  51
 333.383
   0
POLYLINE
   8
LEVEL001
   6
CONTINUOUS
  62
7
  66
1
  10
0.0
  20
0.0
  30
0.0
  70
0
   0
VERTEX
   8
LEVEL001
   6
CONTINUOUS
  62
7
  10
 123.275
  20
 260.357
  30
0.0
   0
VERTEX
   8
LEVEL001
   6
CONTINUOUS
  62
7
  10
 125.555
  20
 260.357
  30
0.0
   0
VERTEX
   8
LEVEL001
   6
CONTINUOUS
  62
7
  10
 125.555
  20
 248.357
  30
0.0
   0
VERTEX
   8
LEVEL001
   6
CONTINUOUS
  62
7
  10
 123.275
  20
 248.357
  30
0.0
   0
SEQEND
   0
LINE
   8
LEVEL001
   6
CONTINUOUS
  62
7
  10
 70.0551
  20
 224.357
  30
0.0
  11
 135.055
  21
 224.357
  31
0.0
   0
ARC
   8
LEVEL001
   6
CONTINUOUS
  62
7
  10
 146.355
  20
 219.057
  30
0.0
  40
 0.200000
  50
 270.005
  51
0.0
   0
LINE
   8
LEVEL001
   6
CONTINUOUS
  62
7
  10
 152.555
  20
 224.357
  30
0.0
  11
 152.555
  21
 221.857
  31
0.0
   0
ARC
   8
LEVEL001
   6
CONTINUOUS
  62
7
  10
 58.7554
  20
 219.058
  30
0.0
  40
 0.200000
  50
 180.001
  51
 269.999
   0
LINE
   8
LEVEL001
   6
CONTINUOUS
  62
7
  10
 52.5551
  20
 221.857
  30
0.0
  11
 52.5551
  21
 224.357
  31
0.0
   0
LINE
   8
LEVEL001
   6
CONTINUOUS
  62
7
  10
 152.555
  20
 221.857
  30
0.0
  11
 52.5551
  21
 221.857
  31
0.0
   0
LINE
   8
LEVEL001
   6
CONTINUOUS
  62
7
  10
 146.355
  20
 218.856
  30
0.0
  11
 58.5564
  21
 218.859
  31
0.0
   0
ARC
   8
LEVEL001
   6
CONTINUOUS
  62
7
  10
 68.5551
  20
 230.107
  30
0.0
  40
 1.50000
  50
 318.190
  51
 221.810
   0
ARC
   8
LEVEL001
   6
CONTINUOUS
  62
7
  10
 68.5551
  20
 228.107
  30
0.0
  40
 1.50000
  50
 138.190
  51
 41.8103
   0
ARC
   8
LEVEL001
   6
CONTINUOUS
  62
7
  10
 69.5551
  20
 226.607
  30
0.0
  40
 2.00000
  50
 270.000
  51
 0.374542E-10
   0
LINE
   8
LEVEL001
   6
CONTINUOUS
  62
7
  10
 71.5551
  20
 226.607
  30
0.0
  11
 71.5551
  21
 231.607
  31
0.0
   0
ARC
   8
LEVEL001
   6
CONTINUOUS
  62
7
  10
 69.5551
  20
 231.607
  30
0.0
  40
 2.00000
  50
0.0
  51
 90.0000
   0
LINE
   8
LEVEL001
   6
CONTINUOUS
  62
7
  10
 69.5551
  20
 233.607
  30
0.0
  11
 67.5551
  21
 233.607
  31
0.0
   0
ARC
   8
LEVEL001
   6
CONTINUOUS
  62
7
  10
 67.5551
  20
 231.607
  30
0.0
  40
 2.00000
  50
 90.0000
  51
 180.000
   0
LINE
   8
LEVEL001
   6
CONTINUOUS
  62
7
  10
 65.5551
  20
 231.607
  30
0.0
  11
 65.5551
  21
 226.607
  31
0.0
   0
ARC
   8
LEVEL001
   6
CONTINUOUS
  62
7
  10
 67.5551
  20
 226.607
  30
0.0
  40
 2.00000
  50
 180.000
  51
 270.000
   0
LINE
   8
LEVEL001
   6
CONTINUOUS
  62
7
  10
 67.5551
  20
 224.607
  30
0.0
  11
 69.5551
  21
 224.607
  31
0.0
   0
ARC
   8
LEVEL001
   6
CONTINUOUS
  62
7
  10
 73.6551
  20
 224.757
  30
0.0
  40
 0.400000
  50
 270.000
  51
 0.460035E-9
   0
LINE
   8
LEVEL001
   6
CONTINUOUS
  62
7
  10
 74.0551
  20
 224.757
  30
0.0
  11
 74.0551
  21
 235.957
  31
0.0
   0
ARC
   8
LEVEL001
   6
CONTINUOUS
  62
7
  10
 73.6551
  20
 235.957
  30
0.0
  40
 0.400000
  50
 0.407111E-11
  51
 90.0000
   0
LINE
   8
LEVEL001
   6
CONTINUOUS
  62
7
  10
 73.6551
  20
 236.357
  30
0.0
  11
 63.4551
  21
 236.357
  31
0.0
   0
ARC
   8
LEVEL001
   6
CONTINUOUS
  62
7
  10
 63.4551
  20
 235.957
  30
0.0
  40
 0.400000
  50
 90.0000
  51
 180.000
   0
LINE
   8
LEVEL001
   6
CONTINUOUS
  62
7
  10
 63.0551
  20
 235.957
  30
0.0
  11
 63.0551
  21
 224.757
  31
0.0
   0
ARC
   8
LEVEL001
   6
CONTINUOUS
  62
7
  10
 63.4551
  20
 224.757
  30
0.0
  40
 0.400000
  50
 180.000
  51
 270.000
   0
LINE
   8
LEVEL001
   6
CONTINUOUS
  62
7
  10
 52.5551
  20
 224.357
  30
0.0
  11
 152.555
  21
 224.357
  31
0.0
   0
LINE
   8
LEVEL001
   6
CONTINUOUS
  62
7
  10
 63.4551
  20
 224.357
  30
0.0
  11
 73.6551
  21
 224.357
  31
0.0
   0
POLYLINE
   8
LEVEL001
   6
CONTINUOUS
  62
7
  66
1
  10
0.0
  20
0.0
  30
0.0
  70
0
   0
VERTEX
   8
LEVEL001
   6
CONTINUOUS
  62
7
  10
 59.5549
  20
 212.857
  30
0.0
   0
VERTEX
   8
LEVEL001
   6
CONTINUOUS
  62
7
  10
 71.5549
  20
 212.857
  30
0.0
   0
VERTEX
   8
LEVEL001
   6
CONTINUOUS
  62
7
  10
 71.5549
  20
 214.357
  30
0.0
   0
VERTEX
   8
LEVEL001
   6
CONTINUOUS
  62
7
  10
 59.5549
  20
 214.357
  30
0.0
   0
VERTEX
   8
LEVEL001
   6
CONTINUOUS
  62
7
  10
 59.5549
  20
 212.857
  30
0.0
   0
SEQEND
   0
LINE
   8
LEVEL001
   6
CONTINUOUS
  62
7
  10
 59.5549
  20
 214.357
  30
0.0
  11
 61.3823
  21
 214.998
  31
0.0
   0
LINE
   8
LEVEL001
   6
CONTINUOUS
  62
7
  10
 71.5549
  20
 214.357
  30
0.0
  11
 69.7275
  21
 214.998
  31
0.0
   0
LINE
   8
LEVEL001
   6
CONTINUOUS
  62
7
  10
 62.3049
  20
 212.857
  30
0.0
  11
 62.3049
  21
 210.857
  31
0.0
   0
LINE
   8
LEVEL001
   6
CONTINUOUS
  62
7
  10
 68.8049
  20
 212.857
  30
0.0
  11
 68.8049
  21
 210.857
  31
0.0
   0
POLYLINE
   8
LEVEL001
   6
CONTINUOUS
  62
7
  66
1
  10
0.0
  20
0.0
  30
0.0
  70
0
   0
VERTEX
   8
LEVEL001
   6
CONTINUOUS
  62
7
  10
 61.5549
  20
 208.857
  30
0.0
   0
VERTEX
   8
LEVEL001
   6
CONTINUOUS
  62
7
  10
 69.5549
  20
 208.857
  30
0.0
   0
VERTEX
   8
LEVEL001
   6
CONTINUOUS
  62
7
  10
 69.5549
  20
 210.857
  30
0.0
   0
VERTEX
   8
LEVEL001
   6
CONTINUOUS
  62
7
  10
 61.5549
  20
 210.857
  30
0.0
   0
VERTEX
   8
LEVEL001
   6
CONTINUOUS
  62
7
  10
 61.5549
  20
 208.857
  30
0.0
   0
SEQEND
   0
ARC
   8
LEVEL001
   6
CONTINUOUS
  62
7
  10
 49.5549
  20
 201.646
  30
0.0
  40
 14.0000
  50
0.0
  51
 31.0027
   0
ARC
   8
LEVEL001
   6
CONTINUOUS
  62
7
  10
 81.5549
  20
 201.646
  30
0.0
  40
 14.0000
  50
 148.997
  51
 180.000
   0
LINE
   8
LEVEL001
   6
CONTINUOUS
  62
7
  10
 63.5549
  20
 201.646
  30
0.0
  11
 63.5549
  21
 198.357
  31
0.0
   0
LINE
   8
LEVEL001
   6
CONTINUOUS
  62
7
  10
 67.5549
  20
 201.646
  30
0.0
  11
 67.5549
  21
 198.357
  31
0.0
   0
LINE
   8
LEVEL001
   6
CONTINUOUS
  62
7
  10
 67.0549
  20
 197.857
  30
0.0
  11
 67.5549
  21
 198.357
  31
0.0
   0
LINE
   8
LEVEL001
   6
CONTINUOUS
  62
7
  10
 63.5549
  20
 198.357
  30
0.0
  11
 64.0549
  21
 197.857
  31
0.0
   0
LINE
   8
LEVEL001
   6
CONTINUOUS
  62
7
  10
 64.0549
  20
 197.857
  30
0.0
  11
 67.0549
  21
 197.857
  31
0.0
   0
POLYLINE
   8
LEVEL001
   6
CONTINUOUS
  62
7
  66
1
  10
0.0
  20
0.0
  30
0.0
  70
0
   0
VERTEX
   8
LEVEL001
   6
CONTINUOUS
  62
7
  10
 133.555
  20
 212.857
  30
0.0
   0
VERTEX
   8
LEVEL001
   6
CONTINUOUS
  62
7
  10
 145.555
  20
 212.857
  30
0.0
   0
VERTEX
   8
LEVEL001
   6
CONTINUOUS
  62
7
  10
 145.555
  20
 214.357
  30
0.0
   0
VERTEX
   8
LEVEL001
   6
CONTINUOUS
  62
7
  10
 133.555
  20
 214.357
  30
0.0
   0
VERTEX
   8
LEVEL001
   6
CONTINUOUS
  62
7
  10
 133.555
  20
 212.857
  30
0.0
   0
SEQEND
   0
LINE
   8
LEVEL001
   6
CONTINUOUS
  62
7
  10
 133.555
  20
 214.357
  30
0.0
  11
 135.382
  21
 214.998
  31
0.0
   0
LINE
   8
LEVEL001
   6
CONTINUOUS
  62
7
  10
 145.555
  20
 214.357
  30
0.0
  11
 143.728
  21
 214.998
  31
0.0
   0
LINE
   8
LEVEL001
   6
CONTINUOUS
  62
7
  10
 136.305
  20
 212.857
  30
0.0
  11
 136.305
  21
 210.857
  31
0.0
   0
LINE
   8
LEVEL001
   6
CONTINUOUS
  62
7
  10
 142.805
  20
 212.857
  30
0.0
  11
 142.805
  21
 210.857
  31
0.0
   0
POLYLINE
   8
LEVEL001
   6
CONTINUOUS
  62
7
  66
1
  10
0.0
  20
0.0
  30
0.0
  70
0
   0
VERTEX
   8
LEVEL001
   6
CONTINUOUS
  62
7
  10
 135.555
  20
 208.857
  30
0.0
   0
VERTEX
   8
LEVEL001
   6
CONTINUOUS
  62
7
  10
 143.555
  20
 208.857
  30
0.0
   0
VERTEX
   8
LEVEL001
   6
CONTINUOUS
  62
7
  10
 143.555
  20
 210.857
  30
0.0
   0
VERTEX
   8
LEVEL001
   6
CONTINUOUS
  62
7
  10
 135.555
  20
 210.857
  30
0.0
   0
VERTEX
   8
LEVEL001
   6
CONTINUOUS
  62
7
  10
 135.555
  20
 208.857
  30
0.0
   0
SEQEND
   0
ARC
   8
LEVEL001
   6
CONTINUOUS
  62
7
  10
 123.555
  20
 201.646
  30
0.0
  40
 14.0000
  50
0.0
  51
 31.0027
   0
ARC
   8
LEVEL001
   6
CONTINUOUS
  62
7
  10
 155.555
  20
 201.646
  30
0.0
  40
 14.0000
  50
 148.997
  51
 180.000
   0
LINE
   8
LEVEL001
   6
CONTINUOUS
  62
7
  10
 137.555
  20
 201.646
  30
0.0
  11
 137.555
  21
 198.357
  31
0.0
   0
LINE
   8
LEVEL001
   6
CONTINUOUS
  62
7
  10
 141.555
  20
 201.646
  30
0.0
  11
 141.555
  21
 198.357
  31
0.0
   0
LINE
   8
LEVEL001
   6
CONTINUOUS
  62
7
  10
 141.055
  20
 197.857
  30
0.0
  11
 141.555
  21
 198.357
  31
0.0
   0
LINE
   8
LEVEL001
   6
CONTINUOUS
  62
7
  10
 137.555
  20
 198.357
  30
0.0
  11
 138.055
  21
 197.857
  31
0.0
   0
LINE
   8
LEVEL001
   6
CONTINUOUS
  62
7
  10
 138.055
  20
 197.857
  30
0.0
  11
 141.055
  21
 197.857
  31
0.0
   0
ARC
   8
LEVEL001
   6
CONTINUOUS
  62
7
  10
 60.5549
  20
 217.357
  30
0.0
  40
 2.50000
  50
 289.326
  51
 36.9148
   0
ARC
   8
LEVEL001
   6
CONTINUOUS
  62
7
  10
 70.5549
  20
 217.357
  30
0.0
  40
 2.50000
  50
 143.091
  51
 250.674
   0
ARC
   8
LEVEL001
   6
CONTINUOUS
  62
7
  10
 144.555
  20
 217.357
  30
0.0
  40
 2.50000
  50
 143.169
  51
 250.674
   0
ARC
   8
LEVEL001
   6
CONTINUOUS
  62
7
  10
 134.555
  20
 217.357
  30
0.0
  40
 2.50000
  50
 289.326
  51
 36.8373
   0
CIRCLE
   8
LEVEL001
   6
CONTINUOUS
  62
7
  10
 81.5551
  20
 275.357
  30
0.0
  40
 3.00000
   0
LINE
   8
LEVEL001
   6
CONTINUOUS
  62
7
  10
 81.5551
  20
 277.357
  30
0.0
  11
 81.5551
  21
 273.357
  31
0.0
   0
LINE
   8
LEVEL001
   6
CONTINUOUS
  62
7
  10
 83.5551
  20
 275.357
  30
0.0
  11
 79.5551
  21
 275.357
  31
0.0
   0
CIRCLE
   8
LEVEL001
   6
CONTINUOUS
  62
7
  10
 123.555
  20
 275.357
  30
0.0
  40
 3.00000
   0
LINE
   8
LEVEL001
   6
CONTINUOUS
  62
7
  10
 123.555
  20
 277.357
  30
0.0
  11
 123.555
  21
 273.357
  31
0.0
   0
LINE
   8
LEVEL001
   6
CONTINUOUS
  62
7
  10
 121.555
  20
 275.357
  30
0.0
  11
 125.555
  21
 275.357
  31
0.0
   0
LINE
   8
LEVEL001
   6
CONTINUOUS
  62
7
  10
 121.555
  20
 233.357
  30
0.0
  11
 125.555
  21
 233.357
  31
0.0
   0
LINE
   8
LEVEL001
   6
CONTINUOUS
  62
7
  10
 123.555
  20
 235.357
  30
0.0
  11
 123.555
  21
 231.357
  31
0.0
   0
CIRCLE
   8
LEVEL001
   6
CONTINUOUS
  62
7
  10
 123.555
  20
 233.357
  30
0.0
  40
 3.00000
   0
LINE
   8
LEVEL001
   6
CONTINUOUS
  62
7
  10
 83.5551
  20
 233.357
  30
0.0
  11
 79.5551
  21
 233.357
  31
0.0
   0
LINE
   8
LEVEL001
   6
CONTINUOUS
  62
7
  10
 81.5551
  20
 235.357
  30
0.0
  11
 81.5551
  21
 231.357
  31
0.0
   0
CIRCLE
   8
LEVEL001
   6
CONTINUOUS
  62
7
  10
 81.5551
  20
 233.357
  30
0.0
  40
 3.00000
   0
ARC
   8
LEVEL001
   6
CONTINUOUS
  62
7
  10
 147.555
  20
 227.557
  30
0.0
  40
 8.00000
  50
 254.775
  51
 285.225
   0
ARC
   8
LEVEL001
   6
CONTINUOUS
  62
7
  10
 145.743
  20
 220.899
  30
0.0
  40
 1.10000
  50
 184.999
  51
 254.775
   0
LINE
   8
LEVEL001
   6
CONTINUOUS
  62
7
  10
 144.555
  20
 221.857
  30
0.0
  11
 144.647
  21
 220.804
  31
0.0
   0
LINE
   8
LEVEL001
   6
CONTINUOUS
  62
7
  10
 150.555
  20
 221.857
  30
0.0
  11
 150.463
  21
 220.804
  31
0.0
   0
ARC
   8
LEVEL001
   6
CONTINUOUS
  62
7
  10
 149.367
  20
 220.899
  30
0.0
  40
 1.10000
  50
 285.223
  51
 354.999
   0
LINE
   8
LEVEL001
   6
CONTINUOUS
  62
7
  10
 54.5551
  20
 221.857
  30
0.0
  11
 54.6472
  21
 220.804
  31
0.0
   0
ARC
   8
LEVEL001
   6
CONTINUOUS
  62
7
  10
 55.7430
  20
 220.899
  30
0.0
  40
 1.10000
  50
 185.001
  51
 254.777
   0
ARC
   8
LEVEL001
   6
CONTINUOUS
  62
7
  10
 57.5551
  20
 227.557
  30
0.0
  40
 8.00000
  50
 254.775
  51
 285.225
   0
ARC
   8
LEVEL001
   6
CONTINUOUS
  62
7
  10
 59.3671
  20
 220.899
  30
0.0
  40
 1.10000
  50
 285.225
  51
 355.001
   0
LINE
   8
LEVEL001
   6
CONTINUOUS
  62
7
  10
 60.5551
  20
 221.857
  30
0.0
  11
 60.4629
  21
 220.804
  31
0.0
   0
LINE
   8
LEVEL001
   6
CONTINUOUS
  62
7
  10
 146.555
  20
 219.057
  30
0.0
  11
 146.555
  21
 219.620
  31
0.0
   0
LINE
   8
LEVEL001
   6
CONTINUOUS
  62
7
  10
 58.5565
  20
 219.058
  30
0.0
  11
 58.5562
  21
 219.620
  31
0.0
   0
LINE
   8
LEVEL001
   6
CONTINUOUS
  62
7
  10
 134.555
  20
 258.357
  30
0.0
  11
 134.556
  21
 250.357
  31
0.0
   0
LINE
   8
LEVEL001
   6
DASHDOT
  62
1
  10
 65.5549
  20
 224.357
  30
0.0
  11
 65.5549
  21
 195.941
  31
0.0
   0
LINE
   8
LEVEL001
   6
DASHDOT
  62
1
  10
 139.555
  20
 224.354
  30
0.0
  11
 139.555
  21
 195.941
  31
0.0
   0
LINE
   8
LEVEL001
   6
DASHDOT
  62
1
  10
 57.5551
  20
 254.357
  30
0.0
  11
 142.555
  21
 254.357
  31
0.0
   0
TEXT
   8
LEVEL001
  62
7
  10
 72.5551
  20
 5.50525
  30
0.0
  40
 12.0000
   1
‚l‚jЃ|‚P‚O
   7
STANDARD
  72
1
  11
 102.555
  21
 13.5052
  31
0.0
  73
2
   0
LINE
   8
LEVEL001
   6
CONTINUOUS
  62
1
  10
 84.0552
  20
 68.9411
  30
0.0
  11
 84.0552
  21
 61.5052
  31
0.0
   0
LINE
   8
LEVEL001
   6
CONTINUOUS
  62
1
  10
 121.055
  20
 68.9411
  30
0.0
  11
 121.055
  21
 61.5052
  31
0.0
   0
LINE
   8
LEVEL001
   6
CONTINUOUS
  62
1
  10
 84.0552
  20
 63.5052
  30
0.0
  11
 121.055
  21
 63.5052
  31
0.0
   0
LINE
   8
LEVEL001
   6
CONTINUOUS
  62
1
  10
 84.0552
  20
 63.5052
  30
0.0
  11
 88.0552
  21
 62.9786
  31
0.0
   0
LINE
   8
LEVEL001
   6
CONTINUOUS
  62
1
  10
 84.0552
  20
 63.5052
  30
0.0
  11
 88.0552
  21
 64.0319
  31
0.0
   0
LINE
   8
LEVEL001
   6
CONTINUOUS
  62
1
  10
 121.055
  20
 63.5052
  30
0.0
  11
 117.055
  21
 64.0319
  31
0.0
   0
LINE
   8
LEVEL001
   6
CONTINUOUS
  62
1
  10
 121.055
  20
 63.5052
  30
0.0
  11
 117.055
  21
 62.9786
  31
0.0
   0
TEXT
   8
LEVEL001
  62
1
  10
 96.5552
  20
 66.0767
  30
0.0
  40
 6.00000
   1
37
   7
STANDARD
  72
1
  11
 102.555
  21
 66.0767
  31
0.0
   0
LINE
   8
LEVEL001
   6
CONTINUOUS
  62
1
  10
 129.055
  20
 87.8572
  30
0.0
  11
 184.555
  21
 87.8572
  31
0.0
   0
LINE
   8
LEVEL001
   6
CONTINUOUS
  62
1
  10
 139.555
  20
 157.357
  30
0.0
  11
 184.555
  21
 157.357
  31
0.0
   0
LINE
   8
LEVEL001
   6
CONTINUOUS
  62
1
  10
 182.555
  20
 87.8572
  30
0.0
  11
 182.555
  21
 157.357
  31
0.0
   0
LINE
   8
LEVEL001
   6
CONTINUOUS
  62
1
  10
 182.555
  20
 87.8572
  30
0.0
  11
 183.082
  21
 91.8572
  31
0.0
   0
LINE
   8
LEVEL001
   6
CONTINUOUS
  62
1
  10
 182.555
  20
 87.8572
  30
0.0
  11
 182.028
  21
 91.8572
  31
0.0
   0
LINE
   8
LEVEL001
   6
CONTINUOUS
  62
1
  10
 182.555
  20
 157.357
  30
0.0
  11
 182.028
  21
 153.357
  31
0.0
   0
LINE
   8
LEVEL001
   6
CONTINUOUS
  62
1
  10
 182.555
  20
 157.357
  30
0.0
  11
 183.082
  21
 153.357
  31
0.0
   0
TEXT
   8
LEVEL001
  62
1
  10
 179.984
  20
 116.607
  30
0.0
  40
 6.00000
   1
70
  50
 90.0000
   7
STANDARD
  72
1
  11
 179.984
  21
 122.607
  31
0.0
   0
LINE
   8
LEVEL001
   6
CONTINUOUS
  62
1
  10
 43.5551
  20
 116.357
  30
0.0
  11
 43.5551
  21
 31.5052
  31
0.0
   0
LINE
   8
LEVEL001
   6
CONTINUOUS
  62
1
  10
 161.555
  20
 116.357
  30
0.0
  11
 161.555
  21
 31.5052
  31
0.0
   0
LINE
   8
LEVEL001
   6
CONTINUOUS
  62
1
  10
 43.5551
  20
 33.5052
  30
0.0
  11
 161.555
  21
 33.5052
  31
0.0
   0
LINE
   8
LEVEL001
   6
CONTINUOUS
  62
1
  10
 43.5551
  20
 33.5052
  30
0.0
  11
 47.5551
  21
 32.9786
  31
0.0
   0
LINE
   8
LEVEL001
   6
CONTINUOUS
  62
1
  10
 43.5551
  20
 33.5052
  30
0.0
  11
 47.5551
  21
 34.0319
  31
0.0
   0
LINE
   8
LEVEL001
   6
CONTINUOUS
  62
1
  10
 161.555
  20
 33.5052
  30
0.0
  11
 157.555
  21
 34.0319
  31
0.0
   0
LINE
   8
LEVEL001
   6
CONTINUOUS
  62
1
  10
 161.555
  20
 33.5052
  30
0.0
  11
 157.555
  21
 32.9786
  31
0.0
   0
TEXT
   8
LEVEL001
  62
1
  10
 93.5551
  20
 36.0767
  30
0.0
  40
 6.00000
   1
118
   7
STANDARD
  72
1
  11
 102.555
  21
 36.0767
  31
0.0
   0
LINE
   8
LEVEL001
   6
CONTINUOUS
  62
1
  10
 51.5551
  20
 120.357
  30
0.0
  11
 51.5551
  21
 46.5052
  31
0.0
   0
LINE
   8
LEVEL001
   6
CONTINUOUS
  62
1
  10
 153.555
  20
 120.357
  30
0.0
  11
 153.555
  21
 46.5052
  31
0.0
   0
LINE
   8
LEVEL001
   6
CONTINUOUS
  62
1
  10
 51.5551
  20
 48.5052
  30
0.0
  11
 153.555
  21
 48.5052
  31
0.0
   0
LINE
   8
LEVEL001
   6
CONTINUOUS
  62
1
  10
 51.5551
  20
 48.5052
  30
0.0
  11
 55.5551
  21
 47.9786
  31
0.0
   0
LINE
   8
LEVEL001
   6
CONTINUOUS
  62
1
  10
 51.5551
  20
 48.5052
  30
0.0
  11
 55.5551
  21
 49.0319
  31
0.0
   0
LINE
   8
LEVEL001
   6
CONTINUOUS
  62
1
  10
 153.555
  20
 48.5052
  30
0.0
  11
 149.555
  21
 49.0319
  31
0.0
   0
LINE
   8
LEVEL001
   6
CONTINUOUS
  62
1
  10
 153.555
  20
 48.5052
  30
0.0
  11
 149.555
  21
 47.9786
  31
0.0
   0
TEXT
   8
LEVEL001
  62
1
  10
 93.5551
  20
 51.0767
  30
0.0
  40
 6.00000
   1
102
   7
STANDARD
  72
1
  11
 102.555
  21
 51.0767
  31
0.0
   0
LINE
   8
LEVEL001
   6
CONTINUOUS
  62
1
  10
 65.5549
  20
 193.941
  30
0.0
  11
 65.5549
  21
 186.505
  31
0.0
   0
LINE
   8
LEVEL001
   6
CONTINUOUS
  62
1
  10
 139.555
  20
 193.941
  30
0.0
  11
 139.555
  21
 186.505
  31
0.0
   0
LINE
   8
LEVEL001
   6
CONTINUOUS
  62
1
  10
 65.5549
  20
 188.505
  30
0.0
  11
 139.555
  21
 188.505
  31
0.0
   0
LINE
   8
LEVEL001
   6
CONTINUOUS
  62
1
  10
 65.5549
  20
 188.505
  30
0.0
  11
 69.5549
  21
 187.979
  31
0.0
   0
LINE
   8
LEVEL001
   6
CONTINUOUS
  62
1
  10
 65.5549
  20
 188.505
  30
0.0
  11
 69.5549
  21
 189.032
  31
0.0
   0
LINE
   8
LEVEL001
   6
CONTINUOUS
  62
1
  10
 139.555
  20
 188.505
  30
0.0
  11
 135.555
  21
 189.032
  31
0.0
   0
LINE
   8
LEVEL001
   6
CONTINUOUS
  62
1
  10
 139.555
  20
 188.505
  30
0.0
  11
 135.555
  21
 187.979
  31
0.0
   0
TEXT
   8
LEVEL001
  62
1
  10
 96.5549
  20
 191.077
  30
0.0
  40
 6.00000
   1
74
   7
STANDARD
  72
1
  11
 102.555
  21
 191.077
  31
0.0
   0
LINE
   8
LEVEL001
   6
CONTINUOUS
  62
1
  10
 52.5551
  20
 219.857
  30
0.0
  11
 52.5551
  21
 171.505
  31
0.0
   0
LINE
   8
LEVEL001
   6
CONTINUOUS
  62
1
  10
 152.555
  20
 219.857
  30
0.0
  11
 152.555
  21
 171.505
  31
0.0
   0
LINE
   8
LEVEL001
   6
CONTINUOUS
  62
1
  10
 52.5551
  20
 173.505
  30
0.0
  11
 152.555
  21
 173.505
  31
0.0
   0
LINE
   8
LEVEL001
   6
CONTINUOUS
  62
1
  10
 52.5551
  20
 173.505
  30
0.0
  11
 56.5551
  21
 172.979
  31
0.0
   0
LINE
   8
LEVEL001
   6
CONTINUOUS
  62
1
  10
 52.5551
  20
 173.505
  30
0.0
  11
 56.5551
  21
 174.032
  31
0.0
   0
LINE
   8
LEVEL001
   6
CONTINUOUS
  62
1
  10
 152.555
  20
 173.505
  30
0.0
  11
 148.555
  21
 174.032
  31
0.0
   0
LINE
   8
LEVEL001
   6
CONTINUOUS
  62
1
  10
 152.555
  20
 173.505
  30
0.0
  11
 148.555
  21
 172.979
  31
0.0
   0
TEXT
   8
LEVEL001
  62
1
  10
 93.5551
  20
 176.077
  30
0.0
  40
 6.00000
   1
100
   7
STANDARD
  72
1
  11
 102.555
  21
 176.077
  31
0.0
   0
LINE
   8
LEVEL001
   6
CONTINUOUS
  62
1
  10
 136.556
  20
 250.357
  30
0.0
  11
 174.555
  21
 250.357
  31
0.0
   0
LINE
   8
LEVEL001
   6
CONTINUOUS
  62
1
  10
 136.555
  20
 258.357
  30
0.0
  11
 174.555
  21
 258.357
  31
0.0
   0
LINE
   8
LEVEL001
   6
CONTINUOUS
  62
1
  10
 172.555
  20
 250.357
  30
0.0
  11
 172.555
  21
 258.357
  31
0.0
   0
LINE
   8
LEVEL001
   6
CONTINUOUS
  62
1
  10
 172.555
  20
 258.357
  30
0.0
  11
 172.555
  21
 272.505
  31
0.0
   0
LINE
   8
LEVEL001
   6
CONTINUOUS
  62
1
  10
 172.555
  20
 250.357
  30
0.0
  11
 172.028
  21
 246.357
  31
0.0
   0
LINE
   8
LEVEL001
   6
CONTINUOUS
  62
1
  10
 172.555
  20
 250.357
  30
0.0
  11
 173.082
  21
 246.357
  31
0.0
   0
LINE
   8
LEVEL001
   6
CONTINUOUS
  62
1
  10
 172.555
  20
 258.357
  30
0.0
  11
 173.082
  21
 262.357
  31
0.0
   0
LINE
   8
LEVEL001
   6
CONTINUOUS
  62
1
  10
 172.555
  20
 258.357
  30
0.0
  11
 172.028
  21
 262.357
  31
0.0
   0
LINE
   8
LEVEL001
   6
CONTINUOUS
  62
1
  10
 172.555
  20
 250.357
  30
0.0
  11
 172.555
  21
 245.357
  31
0.0
   0
LINE
   8
LEVEL001
   6
CONTINUOUS
  62
1
  10
 172.555
  20
 258.357
  30
0.0
  11
 172.555
  21
 272.505
  31
0.0
   0
TEXT
   8
LEVEL001
  62
1
  10
 171.055
  20
 260.505
  30
0.0
  40
 6.00000
   1
%%c8
  50
 90.0000
   7
STANDARD
   0
LINE
   8
LEVEL001
   6
CONTINUOUS
  62
1
  10
 147.555
  20
 212.857
  30
0.0
  11
 184.555
  21
 212.857
  31
0.0
   0
LINE
   8
LEVEL001
   6
CONTINUOUS
  62
1
  10
 144.555
  20
 254.357
  30
0.0
  11
 184.555
  21
 254.357
  31
0.0
   0
LINE
   8
LEVEL001
   6
CONTINUOUS
  62
1
  10
 182.555
  20
 212.857
  30
0.0
  11
 182.555
  21
 254.357
  31
0.0
   0
LINE
   8
LEVEL001
   6
CONTINUOUS
  62
1
  10
 182.555
  20
 212.857
  30
0.0
  11
 183.082
  21
 216.857
  31
0.0
   0
LINE
   8
LEVEL001
   6
CONTINUOUS
  62
1
  10
 182.555
  20
 212.857
  30
0.0
  11
 182.028
  21
 216.857
  31
0.0
   0
LINE
   8
LEVEL001
   6
CONTINUOUS
  62
1
  10
 182.555
  20
 254.357
  30
0.0
  11
 182.028
  21
 250.357
  31
0.0
   0
LINE
   8
LEVEL001
   6
CONTINUOUS
  62
1
  10
 182.555
  20
 254.357
  30
0.0
  11
 183.082
  21
 250.357
  31
0.0
   0
TEXT
   8
LEVEL001
  62
1
  10
 179.984
  20
 221.607
  30
0.0
  40
 6.00000
   1
41.5
  50
 90.0000
   7
STANDARD
  72
1
  11
 179.984
  21
 233.607
  31
0.0
   0
LINE
   8
LEVEL001
   6
CONTINUOUS
  62
1
  10
 59.5552
  20
 257.357
  30
0.0
  11
 40.5551
  21
 257.357
  31
0.0
   0
LINE
   8
LEVEL001
   6
CONTINUOUS
  62
1
  10
 59.5552
  20
 251.357
  30
0.0
  11
 40.5551
  21
 251.357
  31
0.0
   0
LINE
   8
LEVEL001
   6
CONTINUOUS
  62
1
  10
 42.5551
  20
 257.357
  30
0.0
  11
 42.5551
  21
 251.357
  31
0.0
   0
LINE
   8
LEVEL001
   6
CONTINUOUS
  62
1
  10
 42.5551
  20
 257.357
  30
0.0
  11
 42.5551
  21
 272.505
  31
0.0
   0
LINE
   8
LEVEL001
   6
CONTINUOUS
  62
1
  10
 42.5551
  20
 257.357
  30
0.0
  11
 43.0817
  21
 261.357
  31
0.0
   0
LINE
   8
LEVEL001
   6
CONTINUOUS
  62
1
  10
 42.5551
  20
 257.357
  30
0.0
  11
 42.0285
  21
 261.357
  31
0.0
   0
LINE
   8
LEVEL001
   6
CONTINUOUS
  62
1
  10
 42.5551
  20
 251.357
  30
0.0
  11
 42.0285
  21
 247.357
  31
0.0
   0
LINE
   8
LEVEL001
   6
CONTINUOUS
  62
1
  10
 42.5551
  20
 251.357
  30
0.0
  11
 43.0817
  21
 247.357
  31
0.0
   0
LINE
   8
LEVEL001
   6
CONTINUOUS
  62
1
  10
 42.5551
  20
 257.357
  30
0.0
  11
 42.5551
  21
 272.505
  31
0.0
   0
LINE
   8
LEVEL001
   6
CONTINUOUS
  62
1
  10
 42.5551
  20
 251.357
  30
0.0
  11
 42.5551
  21
 246.357
  31
0.0
   0
TEXT
   8
LEVEL001
  62
1
  10
 39.9837
  20
 260.505
  30
0.0
  40
 6.00000
   1
%%c6
  50
 90.0000
   7
STANDARD
   0
ENDSEC
   0
EOF
