   0
SECTION
   2
HEADER
   9
$LIMMIN
  10
0.0
  20
0.0
   9
$LIMMAX
  10
 210.000
  20
 297.000
   9
$EXTMIN
  10
0.0
  20
0.0
   9
$EXTMAX
  10
 210.000
  20
 297.000
   9
$LTSCALE
  40
 5.94000
   0
ENDSEC
   0
SECTION
   2
TABLES
  0
TABLE
  2
LTYPE
 70
    25
  0
LTYPE
  2
CONTINUOUS
 70
    64
  3
Solid line
 72
    65
 73
     0
 40
0.0
  0
LTYPE
  2
BORDER
 70
    64
  3
__ __ . __ __ . __ __ . __ __ . __ __ . __ __ .
 72
    65
 73
     6
 40
1.75
 49
0.5
 49
-0.25
 49
0.5
 49
-0.25
 49
0.0
 49
-0.25
  0
LTYPE
  2
BORDER2
 70
    64
  3
__.__.__.__.__.__.__.__.__.__.__.__.__.__.__.__
 72
    65
 73
     6
 40
0.875
 49
0.25
 49
-0.125
 49
0.25
 49
-0.125
 49
0.0
 49
-0.125
  0
LTYPE
  2
BORDERX2
 70
    64
  3
____  ____  .  ____  ____  .  ____  ____  .  __
 72
    65
 73
     6
 40
3.5
 49
1.0
 49
-0.5
 49
1.0
 49
-0.5
 49
0.0
 49
-0.5
  0
LTYPE
  2
CENTER
 70
    64
  3
____ _ ____ _ ____ _ ____ _ ____ _ ____ _ ____ 
 72
    65
 73
     4
 40
2.0
 49
1.25
 49
-0.25
 49
0.25
 49
-0.25
  0
LTYPE
  2
CENTER2
 70
    64
  3
___ _ ___ _ ___ _ ___ _ ___ _ ___ _ ___ _ ___ _
 72
    65
 73
     4
 40
1.125
 49
0.75
 49
-0.125
 49
0.125
 49
-0.125
  0
LTYPE
  2
CENTERX2
 70
    64
  3
________  __  ________  __  ________  __  _____
 72
    65
 73
     4
 40
4.0
 49
2.5
 49
-0.5
 49
0.5
 49
-0.5
  0
LTYPE
  2
DASHDOT
 70
    64
  3
__ . __ . __ . __ . __ . __ . __ . __ . __ . __
 72
    65
 73
     4
 40
1.0
 49
0.5
 49
-0.25
 49
0.0
 49
-0.25
  0
LTYPE
  2
DASHDOT2
 70
    64
  3
_._._._._._._._._._._._._._._._._._._._._._._._
 72
    65
 73
     4
 40
0.5
 49
0.25
 49
-0.125
 49
0.0
 49
-0.125
  0
LTYPE
  2
DASHDOTX2
 70
    64
  3
____  .  ____  .  ____  .  ____  .  ____  .  __
 72
    65
 73
     4
 40
2.0
 49
1.0
 49
-0.5
 49
0.0
 49
-0.5
  0
LTYPE
  2
DASHED
 70
    64
  3
__ __ __ __ __ __ __ __ __ __ __ __ __ __ __ __
 72
    65
 73
     2
 40
0.75
 49
0.5
 49
-0.25
  0
LTYPE
  2
DASHED2
 70
    64
  3
_ _ _ _ _ _ _ _ _ _ _ _ _ _ _ _ _ _ _ _ _ _ _ _
 72
    65
 73
     2
 40
0.375
 49
0.25
 49
-0.125
  0
LTYPE
  2
DASHEDX2
 70
    64
  3
____  ____  ____  ____  ____  ____  ____  ____ 
 72
    65
 73
     2
 40
1.5
 49
1.0
 49
-0.5
  0
LTYPE
  2
DIVIDE
 70
    64
  3
____ . . ____ . . ____ . . ____ . . ____ . . __
 72
    65
 73
     6
 40
1.25
 49
0.5
 49
-0.25
 49
0.0
 49
-0.25
 49
0.0
 49
-0.25
  0
LTYPE
  2
DIVIDE2
 70
    64
  3
__..__..__..__..__..__..__..__..__..__..__..__.
 72
    65
 73
     6
 40
0.625
 49
0.25
 49
-0.125
 49
0.0
 49
-0.125
 49
0.0
 49
-0.125
  0
LTYPE
  2
DIVIDEX2
 70
    64
  3
________  .  .  ________  .  .  ________  .  . 
 72
    65
 73
     6
 40
2.5
 49
1.0
 49
-0.5
 49
0.0
 49
-0.5
 49
0.0
 49
-0.5
  0
LTYPE
  2
DOT
 70
    64
  3
. . . . . . . . . . . . . . . . . . . . . . . .
 72
    65
 73
     2
 40
0.25
 49
0.0
 49
-0.25
  0
LTYPE
  2
DOT2
 70
    64
  3
...............................................
 72
    65
 73
     2
 40
0.125
 49
0.0
 49
-0.125
  0
LTYPE
  2
DOTX2
 70
    64
  3
.  .  .  .  .  .  .  .  .  .  .  .  .  .  .  . 
 72
    65
 73
     2
 40
0.5
 49
0.0
 49
-0.5
  0
LTYPE
  2
HIDDEN
 70
    64
  3
__ __ __ __ __ __ __ __ __ __ __ __ __ __ __ __
 72
    65
 73
     2
 40
0.375
 49
0.25
 49
-0.125
  0
LTYPE
  2
HIDDEN2
 70
    64
  3
_ _ _ _ _ _ _ _ _ _ _ _ _ _ _ _ _ _ _ _ _ _ _ _
 72
    65
 73
     2
 40
0.1875
 49
0.125
 49
-0.0625
  0
LTYPE
  2
HIDDENX2
 70
    64
  3
____ ____ ____ ____ ____ ____ ____ ____ ____ __
 72
    65
 73
     2
 40
0.75
 49
0.5
 49
-0.25
  0
LTYPE
  2
PHANTOM
 70
    64
  3
______  __  __  ______  __  __  ______  __  __ 
 72
    65
 73
     6
 40
2.5
 49
1.25
 49
-0.25
 49
0.25
 49
-0.25
 49
0.25
 49
-0.25
  0
LTYPE
  2
PHANTOM2
 70
    64
  3
___ _ _ ___ _ _ ___ _ _ ___ _ _ ___ _ _ ___ _ _
 72
    65
 73
     6
 40
1.25
 49
0.625
 49
-0.125
 49
0.125
 49
-0.125
 49
0.125
 49
-0.125
  0
LTYPE
  2
PHANTOMX2
 70
    64
  3
____________    ____    ____    ____________   
 72
    65
 73
     6
 40
5.0
 49
2.5
 49
-0.5
 49
0.5
 49
-0.5
 49
0.5
 49
-0.5
  0
ENDTAB
  0
TABLE
  2
STYLE
 70
     2
  0
STYLE
  2
STANDARD
 70
0
 40
0.0
 41
1.0
 50
0.0
 71
0
 42
0.2
  3
TXT
  4
BIGFONT
  0
STYLE
  2
STANDARD1
 70
     4
 40
0.0
 41
1.0
 50
0.0
 71
     0
 42
0.2
  3
TXT
  4
BIGFONT
  0
ENDTAB
   0
TABLE
   2
LAYER
  70
2
   0
LAYER
   2
0
  70
0
  62
7
   6
CONTINUOUS
   0
LAYER
   2
LEVEL001
  70
0
  62
7
   6
CONTINUOUS
   0
ENDTAB
   0
ENDSEC
   0
SECTION
   2
ENTITIES
   0
ARC
   8
LEVEL001
   6
CONTINUOUS
  62
7
  10
 76.6495
  20
 203.877
  30
0.0
  40
 0.480000
  50
 270.000
  51
 352.875
   0
LINE
   8
LEVEL001
   6
CONTINUOUS
  62
7
  10
 73.2332
  20
 203.397
  30
0.0
  11
 76.6495
  21
 203.397
  31
0.0
   0
ARC
   8
LEVEL001
   6
CONTINUOUS
  62
7
  10
 78.4007
  20
 206.277
  30
0.0
  40
 0.960000
  50
 90.0000
  51
 172.875
   0
LINE
   8
LEVEL001
   6
CONTINUOUS
  62
7
  10
 77.1258
  20
 203.818
  30
0.0
  11
 77.4481
  21
 206.396
  31
0.0
   0
ARC
   8
LEVEL001
   6
CONTINUOUS
  62
7
  10
 69.8169
  20
 203.877
  30
0.0
  40
 0.480000
  50
 187.125
  51
 270.000
   0
LINE
   8
LEVEL001
   6
CONTINUOUS
  62
7
  10
 73.2332
  20
 203.397
  30
0.0
  11
 69.8169
  21
 203.397
  31
0.0
   0
ARC
   8
LEVEL001
   6
CONTINUOUS
  62
7
  10
 68.0657
  20
 206.277
  30
0.0
  40
 0.960000
  50
 7.12480
  51
 90.0000
   0
LINE
   8
LEVEL001
   6
CONTINUOUS
  62
7
  10
 69.3406
  20
 203.818
  30
0.0
  11
 69.0183
  21
 206.396
  31
0.0
   0
ARC
   8
LEVEL001
   6
CONTINUOUS
  62
7
  10
 146.124
  20
 203.877
  30
0.0
  40
 0.480000
  50
 270.000
  51
 352.875
   0
LINE
   8
LEVEL001
   6
CONTINUOUS
  62
7
  10
 142.707
  20
 203.397
  30
0.0
  11
 146.124
  21
 203.397
  31
0.0
   0
ARC
   8
LEVEL001
   6
CONTINUOUS
  62
7
  10
 147.875
  20
 206.277
  30
0.0
  40
 0.960000
  50
 90.0000
  51
 172.875
   0
LINE
   8
LEVEL001
   6
CONTINUOUS
  62
7
  10
 146.600
  20
 203.818
  30
0.0
  11
 146.922
  21
 206.396
  31
0.0
   0
ARC
   8
LEVEL001
   6
CONTINUOUS
  62
7
  10
 139.291
  20
 203.877
  30
0.0
  40
 0.480000
  50
 187.125
  51
 270.000
   0
LINE
   8
LEVEL001
   6
CONTINUOUS
  62
7
  10
 142.707
  20
 203.397
  30
0.0
  11
 139.291
  21
 203.397
  31
0.0
   0
ARC
   8
LEVEL001
   6
CONTINUOUS
  62
7
  10
 137.540
  20
 206.277
  30
0.0
  40
 0.960000
  50
 7.12480
  51
 90.0000
   0
LINE
   8
LEVEL001
   6
CONTINUOUS
  62
7
  10
 138.815
  20
 203.818
  30
0.0
  11
 138.493
  21
 206.396
  31
0.0
   0
ARC
   8
LEVEL001
   6
CONTINUOUS
  62
7
  10
 44.9133
  20
 215.147
  30
0.0
  40
 0.480000
  50
 180.001
  51
 268.807
   0
ARC
   8
LEVEL001
   6
CONTINUOUS
  62
7
  10
 44.9133
  20
 223.327
  30
0.0
  40
 0.480000
  50
 91.1930
  51
 180.000
   0
LINE
   8
LEVEL001
   6
CONTINUOUS
  62
7
  10
 44.4333
  20
 223.327
  30
0.0
  11
 44.4333
  21
 215.147
  31
0.0
   0
ARC
   8
LEVEL001
   6
CONTINUOUS
  62
7
  10
 58.5650
  20
 262.509
  30
0.0
  40
 2.40000
  50
 128.660
  51
 165.964
   0
LINE
   8
LEVEL001
   6
CONTINUOUS
  62
7
  10
 57.0658
  20
 264.383
  30
0.0
  11
 73.2350
  21
 277.319
  31
0.0
   0
LINE
   8
LEVEL001
   6
CONTINUOUS
  62
7
  10
 55.5186
  20
 260.219
  30
0.0
  11
 56.2367
  21
 263.091
  31
0.0
   0
LINE
   8
LEVEL001
   6
CONTINUOUS
  62
7
  10
 78.6996
  20
 279.408
  30
0.0
  11
 127.473
  21
 282.117
  31
0.0
   0
ARC
   8
LEVEL001
   6
CONTINUOUS
  62
7
  10
 160.686
  20
 267.693
  30
0.0
  40
 0.480000
  50
 272.295
  51
 14.7165
   0
ARC
   8
LEVEL001
   6
CONTINUOUS
  62
7
  10
 21.8732
  20
 231.237
  30
0.0
  40
 144.000
  50
 14.7150
  51
 22.1273
   0
LINE
   8
LEVEL001
   6
CONTINUOUS
  62
7
  10
 160.847
  20
 268.918
  30
0.0
  11
 160.856
  21
 268.917
  31
0.0
   0
ARC
   8
LEVEL001
   6
CONTINUOUS
  62
7
  10
 158.571
  20
 141.515
  30
0.0
  40
 144.000
  50
 91.3144
  51
 102.472
   0
ARC
   8
LEVEL001
   6
CONTINUOUS
  62
7
  10
 79.2321
  20
 269.822
  30
0.0
  40
 9.60000
  50
 93.1797
  51
 128.660
   0
ARC
   8
LEVEL001
   6
CONTINUOUS
  62
7
  10
 54.7387
  20
 259.797
  30
0.0
  40
 0.240000
  50
 90.0014
  51
 168.541
   0
ARC
   8
LEVEL001
   6
CONTINUOUS
  62
7
  10
 55.2858
  20
 260.277
  30
0.0
  40
 0.240000
  50
 270.002
  51
 345.959
   0
ARC
   8
LEVEL001
   6
CONTINUOUS
  62
7
  10
 73.2332
  20
 203.397
  30
0.0
  40
 2.40000
  50
 180.000
  51
0.0
   0
ARC
   8
LEVEL001
   6
CONTINUOUS
  62
7
  10
 142.707
  20
 203.397
  30
0.0
  40
 2.40000
  50
 180.000
  51
0.0
   0
ARC
   8
LEVEL001
   6
CONTINUOUS
  62
7
  10
 163.634
  20
 218.277
  30
0.0
  40
 1.44000
  50
 270.000
  51
 344.974
   0
ARC
   8
LEVEL001
   6
CONTINUOUS
  62
7
  10
 160.829
  20
 265.173
  30
0.0
  40
 0.960000
  50
 13.7243
  51
 82.3089
   0
ARC
   8
LEVEL001
   6
CONTINUOUS
  62
7
  10
 151.117
  20
 221.637
  30
0.0
  40
 14.4000
  50
 344.974
  51
 355.752
   0
ARC
   8
LEVEL001
   6
CONTINUOUS
  62
7
  10
 49.4731
  20
 232.757
  30
0.0
  40
 0.480000
  50
 100.307
  51
 179.996
   0
ARC
   8
LEVEL001
   6
CONTINUOUS
  62
7
  10
 50.2380
  20
 234.847
  30
0.0
  40
 1.44000
  50
 280.303
  51
 358.578
   0
LINE
   8
LEVEL001
   6
CONTINUOUS
  62
7
  10
 49.3872
  20
 233.229
  30
0.0
  11
 50.4955
  21
 233.431
  31
0.0
   0
ARC
   8
LEVEL001
   6
CONTINUOUS
  62
7
  10
 195.633
  20
 231.237
  30
0.0
  40
 144.000
  50
 168.541
  51
 178.578
   0
ARC
   8
LEVEL001
   6
CONTINUOUS
  62
7
  10
 49.4732
  20
 229.317
  30
0.0
  40
 0.480000
  50
 180.000
  51
 270.000
   0
LINE
   8
LEVEL001
   6
CONTINUOUS
  62
7
  10
 48.9932
  20
 229.317
  30
0.0
  11
 48.9931
  21
 232.757
  31
0.0
   0
ARC
   8
LEVEL001
   6
CONTINUOUS
  62
7
  10
 66.4303
  20
 221.637
  30
0.0
  40
 14.4000
  50
 185.888
  51
 270.000
   0
LINE
   8
LEVEL001
   6
CONTINUOUS
  62
7
  10
 51.6332
  20
 228.837
  30
0.0
  11
 52.0880
  21
 220.159
  31
0.0
   0
LINE
   8
LEVEL001
   6
CONTINUOUS
  62
7
  10
 44.9033
  20
 214.668
  30
0.0
  11
 53.9353
  21
 214.479
  31
0.0
   0
LINE
   8
LEVEL001
   6
CONTINUOUS
  62
7
  10
 44.9033
  20
 223.807
  30
0.0
  11
 51.8892
  21
 223.953
  31
0.0
   0
ARC
   8
LEVEL001
   6
CONTINUOUS
  62
7
  10
 77.5073
  20
 215.397
  30
0.0
  40
 1.44000
  50
 2.00014
  51
 90.0005
   0
ARC
   8
LEVEL001
   6
CONTINUOUS
  62
7
  10
 73.7591
  20
 215.397
  30
0.0
  40
 1.44000
  50
 90.0003
  51
 177.999
   0
LINE
   8
LEVEL001
   6
CONTINUOUS
  62
7
  10
 73.7591
  20
 216.837
  30
0.0
  11
 77.5073
  21
 216.837
  31
0.0
   0
ARC
   8
LEVEL001
   6
CONTINUOUS
  62
7
  10
 71.1061
  20
 208.197
  30
0.0
  40
 0.960000
  50
 270.000
  51
 357.999
   0
ARC
   8
LEVEL001
   6
CONTINUOUS
  62
7
  10
 80.1602
  20
 208.197
  30
0.0
  40
 0.960000
  50
 182.000
  51
 270.000
   0
LINE
   8
LEVEL001
   6
CONTINUOUS
  62
7
  10
 78.9464
  20
 215.447
  30
0.0
  11
 79.2008
  21
 208.164
  31
0.0
   0
LINE
   8
LEVEL001
   6
CONTINUOUS
  62
7
  10
 72.0655
  20
 208.164
  30
0.0
  11
 72.3200
  21
 215.448
  31
0.0
   0
ARC
   8
LEVEL001
   6
CONTINUOUS
  62
7
  10
 149.507
  20
 215.397
  30
0.0
  40
 1.44000
  50
 2.00014
  51
 90.0005
   0
ARC
   8
LEVEL001
   6
CONTINUOUS
  62
7
  10
 145.759
  20
 215.397
  30
0.0
  40
 1.44000
  50
 90.0000
  51
 177.999
   0
LINE
   8
LEVEL001
   6
CONTINUOUS
  62
7
  10
 145.759
  20
 216.837
  30
0.0
  11
 149.507
  21
 216.837
  31
0.0
   0
LINE
   8
LEVEL001
   6
CONTINUOUS
  62
7
  10
 144.066
  20
 208.164
  30
0.0
  11
 144.320
  21
 215.448
  31
0.0
   0
ARC
   8
LEVEL001
   6
CONTINUOUS
  62
7
  10
 143.106
  20
 208.197
  30
0.0
  40
 0.960000
  50
 270.000
  51
 357.999
   0
ARC
   8
LEVEL001
   6
CONTINUOUS
  62
7
  10
 166.761
  20
 232.752
  30
0.0
  40
 0.480000
  50
 359.996
  51
 80.3728
   0
ARC
   8
LEVEL001
   6
CONTINUOUS
  62
7
  10
 165.828
  20
 234.858
  30
0.0
  40
 1.44000
  50
 181.443
  51
 260.365
   0
LINE
   8
LEVEL001
   6
CONTINUOUS
  62
7
  10
 165.587
  20
 233.438
  30
0.0
  11
 166.842
  21
 233.225
  31
0.0
   0
ARC
   8
LEVEL001
   6
CONTINUOUS
  62
7
  10
 167.002
  20
 229.077
  30
0.0
  40
 0.240000
  50
 270.000
  51
0.0
   0
LINE
   8
LEVEL001
   6
CONTINUOUS
  62
7
  10
 167.241
  20
 232.752
  30
0.0
  11
 167.242
  21
 229.077
  31
0.0
   0
LINE
   8
LEVEL001
   6
CONTINUOUS
  62
7
  10
 49.4732
  20
 228.837
  30
0.0
  11
 167.002
  21
 228.837
  31
0.0
   0
ARC
   8
LEVEL001
   6
CONTINUOUS
  62
7
  10
 21.3938
  20
 231.219
  30
0.0
  40
 143.040
  50
 1.44312
  51
 14.5601
   0
LINE
   8
LEVEL001
   6
CONTINUOUS
  62
7
  10
 160.705
  20
 267.213
  30
0.0
  11
 159.840
  21
 267.179
  31
0.0
   0
LINE
   8
LEVEL001
   6
CONTINUOUS
  62
7
  10
 160.958
  20
 266.125
  30
0.0
  11
 160.080
  21
 266.243
  31
0.0
   0
ARC
   8
LEVEL001
   6
CONTINUOUS
  62
7
  10
 21.8732
  20
 231.238
  30
0.0
  40
 144.000
  50
 355.752
  51
 359.045
   0
ARC
   8
LEVEL001
   6
CONTINUOUS
  62
7
  10
 21.8732
  20
 231.237
  30
0.0
  40
 144.000
  50
 0.857444
  51
 13.7242
   0
ARC
   8
LEVEL001
   6
CONTINUOUS
  62
7
  10
 149.414
  20
 221.637
  30
0.0
  40
 14.4000
  50
 270.000
  51
 357.000
   0
LINE
   8
LEVEL001
   6
CONTINUOUS
  62
7
  10
 66.4303
  20
 207.237
  30
0.0
  11
 149.414
  21
 207.237
  31
0.0
   0
LINE
   8
LEVEL001
   6
CONTINUOUS
  62
7
  10
 164.211
  20
 228.837
  30
0.0
  11
 163.794
  21
 220.884
  31
0.0
   0
LINE
   8
LEVEL001
   6
CONTINUOUS
  62
7
  10
 163.634
  20
 216.837
  30
0.0
  11
 162.990
  21
 216.837
  31
0.0
   0
ARC
   8
LEVEL001
   6
CONTINUOUS
  62
7
  10
 152.150
  20
 208.479
  30
0.0
  40
 0.960000
  50
 182.001
  51
 281.747
   0
LINE
   8
LEVEL001
   6
CONTINUOUS
  62
7
  10
 150.946
  20
 215.447
  30
0.0
  11
 151.191
  21
 208.445
  31
0.0
   0
ARC
   8
LEVEL001
   6
CONTINUOUS
  62
7
  10
 123.019
  20
 303.237
  30
0.0
  40
 43.2000
  50
 270.000
  51
 306.870
   0
LINE
   8
LEVEL001
   6
CONTINUOUS
  62
7
  10
 54.7387
  20
 260.037
  30
0.0
  11
 123.019
  21
 260.037
  31
0.0
   0
ARC
   8
LEVEL001
   6
CONTINUOUS
  62
7
  10
 146.876
  20
 384.583
  30
0.0
  40
 104.287
  50
 259.278
  51
 273.474
   0
LINE
   8
LEVEL001
   6
CONTINUOUS
  62
7
  10
 51.3691
  20
 233.637
  30
0.0
  11
 164.654
  21
 233.637
  31
0.0
   0
LINE
   8
LEVEL001
   6
DASHDOT
  62
1
  10
 73.2332
  20
 208.552
  30
0.0
  11
 73.2332
  21
 199.464
  31
0.0
   0
LINE
   8
LEVEL001
   6
DASHDOT
  62
1
  10
 142.707
  20
 208.552
  30
0.0
  11
 142.707
  21
 199.313
  31
0.0
   0
LINE
   8
LEVEL001
   6
DASHDOT
  62
1
  10
 42.3976
  20
 219.237
  30
0.0
  11
 55.4169
  21
 219.237
  31
0.0
   0
LINE
   8
LEVEL001
   6
CONTINUOUS
  62
1
  10
 42.9033
  20
 214.668
  30
0.0
  11
 30.9974
  21
 214.668
  31
0.0
   0
LINE
   8
LEVEL001
   6
CONTINUOUS
  62
1
  10
 42.9033
  20
 223.807
  30
0.0
  11
 30.9974
  21
 223.807
  31
0.0
   0
LINE
   8
LEVEL001
   6
CONTINUOUS
  62
1
  10
 32.9974
  20
 214.668
  30
0.0
  11
 32.9974
  21
 223.807
  31
0.0
   0
LINE
   8
LEVEL001
   6
CONTINUOUS
  62
1
  10
 32.9974
  20
 223.807
  30
0.0
  11
 32.9974
  21
 245.487
  31
0.0
   0
LINE
   8
LEVEL001
   6
CONTINUOUS
  62
1
  10
 32.9974
  20
 214.668
  30
0.0
  11
 32.4708
  21
 210.668
  31
0.0
   0
LINE
   8
LEVEL001
   6
CONTINUOUS
  62
1
  10
 32.9974
  20
 214.668
  30
0.0
  11
 33.5240
  21
 210.668
  31
0.0
   0
LINE
   8
LEVEL001
   6
CONTINUOUS
  62
1
  10
 32.9974
  20
 223.807
  30
0.0
  11
 33.5240
  21
 227.807
  31
0.0
   0
LINE
   8
LEVEL001
   6
CONTINUOUS
  62
1
  10
 32.9974
  20
 223.807
  30
0.0
  11
 32.4708
  21
 227.807
  31
0.0
   0
LINE
   8
LEVEL001
   6
CONTINUOUS
  62
1
  10
 32.9974
  20
 214.668
  30
0.0
  11
 32.9974
  21
 209.668
  31
0.0
   0
LINE
   8
LEVEL001
   6
CONTINUOUS
  62
1
  10
 32.9974
  20
 223.807
  30
0.0
  11
 32.9974
  21
 245.487
  31
0.0
   0
TEXT
   8
LEVEL001
  62
1
  10
 30.4974
  20
 227.487
  30
0.0
  40
 6.00000
   1
%%c19
  50
 90.0000
   7
STANDARD
   0
LINE
   8
LEVEL001
   6
CONTINUOUS
  62
1
  10
 71.2332
  20
 200.997
  30
0.0
  11
 16.9974
  21
 200.997
  31
0.0
   0
LINE
   8
LEVEL001
   6
CONTINUOUS
  62
1
  10
 40.3976
  20
 219.237
  30
0.0
  11
 16.9974
  21
 219.237
  31
0.0
   0
LINE
   8
LEVEL001
   6
CONTINUOUS
  62
1
  10
 17.9974
  20
 200.997
  30
0.0
  11
 17.9974
  21
 219.237
  31
0.0
   0
LINE
   8
LEVEL001
   6
CONTINUOUS
  62
1
  10
 17.9974
  20
 200.997
  30
0.0
  11
 18.5240
  21
 204.997
  31
0.0
   0
LINE
   8
LEVEL001
   6
CONTINUOUS
  62
1
  10
 17.9974
  20
 200.997
  30
0.0
  11
 17.4708
  21
 204.997
  31
0.0
   0
LINE
   8
LEVEL001
   6
CONTINUOUS
  62
1
  10
 17.9974
  20
 219.237
  30
0.0
  11
 17.4708
  21
 215.237
  31
0.0
   0
LINE
   8
LEVEL001
   6
CONTINUOUS
  62
1
  10
 17.9974
  20
 219.237
  30
0.0
  11
 18.5240
  21
 215.237
  31
0.0
   0
TEXT
   8
LEVEL001
  62
1
  10
 16.2831
  20
 204.117
  30
0.0
  40
 6.00000
   1
38
  50
 90.0000
   7
STANDARD
  72
1
  11
 16.2831
  21
 210.117
  31
0.0
   0
LINE
   8
LEVEL001
   6
CONTINUOUS
  62
1
  10
 73.2332
  20
 199.464
  30
0.0
  11
 73.2332
  21
 185.987
  31
0.0
   0
LINE
   8
LEVEL001
   6
CONTINUOUS
  62
1
  10
 142.707
  20
 199.313
  30
0.0
  11
 142.707
  21
 185.987
  31
0.0
   0
LINE
   8
LEVEL001
   6
CONTINUOUS
  62
1
  10
 73.2332
  20
 187.487
  30
0.0
  11
 142.707
  21
 187.487
  31
0.0
   0
LINE
   8
LEVEL001
   6
CONTINUOUS
  62
1
  10
 73.2332
  20
 187.487
  30
0.0
  11
 77.2332
  21
 186.960
  31
0.0
   0
LINE
   8
LEVEL001
   6
CONTINUOUS
  62
1
  10
 73.2332
  20
 187.487
  30
0.0
  11
 77.2332
  21
 188.013
  31
0.0
   0
LINE
   8
LEVEL001
   6
CONTINUOUS
  62
1
  10
 142.707
  20
 187.487
  30
0.0
  11
 138.707
  21
 188.013
  31
0.0
   0
LINE
   8
LEVEL001
   6
CONTINUOUS
  62
1
  10
 142.707
  20
 187.487
  30
0.0
  11
 138.707
  21
 186.960
  31
0.0
   0
TEXT
   8
LEVEL001
  62
1
  10
 98.9703
  20
 188.987
  30
0.0
  40
 6.00000
   1
145
   7
STANDARD
  72
1
  11
 107.970
  21
 188.987
  31
0.0
   0
LINE
   8
LEVEL001
   6
CONTINUOUS
  62
1
  10
 167.002
  20
 226.837
  30
0.0
  11
 167.002
  21
 170.487
  31
0.0
   0
LINE
   8
LEVEL001
   6
CONTINUOUS
  62
1
  10
 48.9932
  20
 227.317
  30
0.0
  11
 48.9932
  21
 170.487
  31
0.0
   0
LINE
   8
LEVEL001
   6
CONTINUOUS
  62
1
  10
 167.002
  20
 172.487
  30
0.0
  11
 48.9932
  21
 172.487
  31
0.0
   0
LINE
   8
LEVEL001
   6
CONTINUOUS
  62
1
  10
 167.002
  20
 172.487
  30
0.0
  11
 163.002
  21
 173.013
  31
0.0
   0
LINE
   8
LEVEL001
   6
CONTINUOUS
  62
1
  10
 167.002
  20
 172.487
  30
0.0
  11
 163.002
  21
 171.960
  31
0.0
   0
LINE
   8
LEVEL001
   6
CONTINUOUS
  62
1
  10
 48.9932
  20
 172.487
  30
0.0
  11
 52.9932
  21
 171.960
  31
0.0
   0
LINE
   8
LEVEL001
   6
CONTINUOUS
  62
1
  10
 48.9932
  20
 172.487
  30
0.0
  11
 52.9932
  21
 173.013
  31
0.0
   0
TEXT
   8
LEVEL001
  62
1
  10
 92.9974
  20
 175.058
  30
0.0
  40
 6.00000
   1
246.5
   7
STANDARD
  72
1
  11
 107.997
  21
 175.058
  31
0.0
   0
LINE
   8
LEVEL001
   6
CONTINUOUS
  62
1
  10
 48.9932
  20
 172.487
  30
0.0
  11
 48.9932
  21
 172.487
  31
0.0
   0
LINE
   8
LEVEL001
   6
CONTINUOUS
  62
1
  10
 44.4333
  20
 213.147
  30
0.0
  11
 44.4333
  21
 170.487
  31
0.0
   0
LINE
   8
LEVEL001
   6
CONTINUOUS
  62
1
  10
 48.9932
  20
 172.487
  30
0.0
  11
 44.4333
  21
 172.487
  31
0.0
   0
LINE
   8
LEVEL001
   6
CONTINUOUS
  62
1
  10
 44.4333
  20
 172.487
  30
0.0
  11
 25.4974
  21
 172.487
  31
0.0
   0
LINE
   8
LEVEL001
   6
CONTINUOUS
  62
1
  10
 48.9932
  20
 172.487
  30
0.0
  11
 52.9932
  21
 171.960
  31
0.0
   0
LINE
   8
LEVEL001
   6
CONTINUOUS
  62
1
  10
 48.9932
  20
 172.487
  30
0.0
  11
 52.9932
  21
 173.013
  31
0.0
   0
LINE
   8
LEVEL001
   6
CONTINUOUS
  62
1
  10
 44.4333
  20
 172.487
  30
0.0
  11
 40.4333
  21
 173.013
  31
0.0
   0
LINE
   8
LEVEL001
   6
CONTINUOUS
  62
1
  10
 44.4333
  20
 172.487
  30
0.0
  11
 40.4333
  21
 171.960
  31
0.0
   0
LINE
   8
LEVEL001
   6
CONTINUOUS
  62
1
  10
 48.9932
  20
 172.487
  30
0.0
  11
 53.9932
  21
 172.487
  31
0.0
   0
LINE
   8
LEVEL001
   6
CONTINUOUS
  62
1
  10
 44.4333
  20
 172.487
  30
0.0
  11
 25.4974
  21
 172.487
  31
0.0
   0
TEXT
   8
LEVEL001
  62
1
  10
 22.4974
  20
 174.987
  30
0.0
  40
 6.00000
   1
7.5
   7
STANDARD
  72
2
  11
 40.4974
  21
 174.987
  31
0.0
   0
ARC
   8
LEVEL001
   6
CONTINUOUS
  62
7
  10
 75.8646
  20
 84.0637
  30
0.0
  40
 7.20000
  50
 182.000
  51
 270.000
   0
LINE
   8
LEVEL001
   6
CONTINUOUS
  62
7
  10
 68.1574
  20
 98.4638
  30
0.0
  11
 68.6690
  21
 83.8125
  31
0.0
   0
ARC
   8
LEVEL001
   6
CONTINUOUS
  62
7
  10
 83.0374
  20
 96.0637
  30
0.0
  40
 4.80000
  50
 180.000
  51
0.0
   0
LINE
   8
LEVEL001
   6
CONTINUOUS
  62
7
  10
 67.9156
  20
 103.265
  30
0.0
  11
 68.2621
  21
 103.264
  31
0.0
   0
ARC
   8
LEVEL001
   6
CONTINUOUS
  62
7
  10
 83.7139
  20
 139.932
  30
0.0
  40
 9.60000
  50
 100.409
  51
 148.741
   0
ARC
   8
LEVEL001
   6
CONTINUOUS
  62
7
  10
 107.998
  20
 7.74378
  30
0.0
  40
 144.000
  50
 98.6271
  51
 100.421
   0
ARC
   8
LEVEL001
   6
CONTINUOUS
  62
7
  10
 113.052
  20
 122.123
  30
0.0
  40
 43.9200
  50
 148.323
  51
 177.346
   0
LINE
   8
LEVEL001
   6
CONTINUOUS
  62
7
  10
 68.2621
  20
 103.264
  30
0.0
  11
 89.9974
  21
 103.264
  31
0.0
   0
CIRCLE
   8
LEVEL001
   6
CONTINUOUS
  62
7
  10
 83.0374
  20
 96.0637
  30
0.0
  40
 1.92000
   0
ARC
   8
LEVEL001
   6
CONTINUOUS
  62
7
  10
 66.8740
  20
 104.483
  30
0.0
  40
 1.44000
  50
 279.918
  51
 357.500
   0
LINE
   8
LEVEL001
   6
CONTINUOUS
  62
7
  10
 69.1744
  20
 124.157
  30
0.0
  11
 68.3126
  21
 104.420
  31
0.0
   0
ARC
   8
LEVEL001
   6
CONTINUOUS
  62
7
  10
 65.9970
  20
 102.380
  30
0.0
  40
 0.480000
  50
 99.9164
  51
 180.000
   0
LINE
   8
LEVEL001
   6
CONTINUOUS
  62
7
  10
 67.1220
  20
 103.064
  30
0.0
  11
 65.9143
  21
 102.853
  31
0.0
   0
ARC
   8
LEVEL001
   6
CONTINUOUS
  62
7
  10
 65.7570
  20
 98.7035
  30
0.0
  40
 0.240000
  50
 180.000
  51
 270.007
   0
LINE
   8
LEVEL001
   6
CONTINUOUS
  62
7
  10
 65.5170
  20
 102.380
  30
0.0
  11
 65.5170
  21
 98.7035
  31
0.0
   0
LINE
   8
LEVEL001
   6
CONTINUOUS
  62
7
  10
 65.7570
  20
 98.4635
  30
0.0
  11
 89.9136
  21
 98.4665
  31
0.0
   0
LINE
   8
LEVEL001
   6
CONTINUOUS
  62
7
  10
 78.2374
  20
 96.0637
  30
0.0
  11
 78.2374
  21
 98.4650
  31
0.0
   0
LINE
   8
LEVEL001
   6
CONTINUOUS
  62
7
  10
 140.130
  20
 76.8638
  30
0.0
  11
 75.8646
  21
 76.8637
  31
0.0
   0
ARC
   8
LEVEL001
   6
CONTINUOUS
  62
7
  10
 83.5174
  20
 73.0238
  30
0.0
  40
 2.40000
  50
 180.000
  51
0.0
   0
ARC
   8
LEVEL001
   6
CONTINUOUS
  62
7
  10
 80.1011
  20
 73.5038
  30
0.0
  40
 0.480000
  50
 187.131
  51
 269.999
   0
ARC
   8
LEVEL001
   6
CONTINUOUS
  62
7
  10
 78.3499
  20
 75.9038
  30
0.0
  40
 0.960000
  50
 7.12436
  51
 90.0000
   0
LINE
   8
LEVEL001
   6
CONTINUOUS
  62
7
  10
 79.6248
  20
 73.4442
  30
0.0
  11
 79.3025
  21
 76.0228
  31
0.0
   0
LINE
   8
LEVEL001
   6
CONTINUOUS
  62
7
  10
 86.9336
  20
 73.0238
  30
0.0
  11
 80.1011
  21
 73.0238
  31
0.0
   0
ARC
   8
LEVEL001
   6
CONTINUOUS
  62
7
  10
 88.2322
  20
 77.8238
  30
0.0
  40
 0.960000
  50
 270.000
  51
 357.999
   0
LINE
   8
LEVEL001
   6
CONTINUOUS
  62
7
  10
 89.9974
  20
 100.864
  30
0.0
  11
 89.1916
  21
 77.7902
  31
0.0
   0
ARC
   8
LEVEL001
   6
CONTINUOUS
  62
7
  10
 92.6374
  20
 146.481
  30
0.0
  40
 3.84000
  50
 114.556
  51
 180.000
   0
ARC
   8
LEVEL001
   6
CONTINUOUS
  62
7
  10
 95.9974
  20
 145.770
  30
0.0
  40
 7.20000
  50
 180.000
  51
 270.000
   0
LINE
   8
LEVEL001
   6
CONTINUOUS
  62
7
  10
 88.7974
  20
 146.481
  30
0.0
  11
 88.7974
  21
 145.770
  31
0.0
   0
ARC
   8
LEVEL001
   6
CONTINUOUS
  62
7
  10
 91.6774
  20
 147.782
  30
0.0
  40
 0.960000
  50
 96.5511
  51
 180.000
   0
ARC
   8
LEVEL001
   6
CONTINUOUS
  62
7
  10
 91.6774
  20
 147.424
  30
0.0
  40
 0.960000
  50
 180.000
  51
 270.000
   0
LINE
   8
LEVEL001
   6
CONTINUOUS
  62
7
  10
 90.7174
  20
 147.782
  30
0.0
  11
 90.7174
  21
 147.424
  31
0.0
   0
ARC
   8
LEVEL001
   6
CONTINUOUS
  62
7
  10
 96.4774
  20
 147.424
  30
0.0
  40
 7.20000
  50
 187.662
  51
 270.000
   0
ARC
   8
LEVEL001
   6
CONTINUOUS
  62
7
  10
 92.3975
  20
 134.464
  30
0.0
  40
 2.40000
  50
 90.0000
  51
 180.000
   0
LINE
   8
LEVEL001
   6
CONTINUOUS
  62
7
  10
 89.9974
  20
 100.864
  30
0.0
  11
 89.9974
  21
 134.464
  31
0.0
   0
ARC
   8
LEVEL001
   6
CONTINUOUS
  62
7
  10
 92.3974
  20
 88.8637
  30
0.0
  40
 1.92000
  50
 180.000
  51
 270.000
   0
ARC
   8
LEVEL001
   6
CONTINUOUS
  62
7
  10
 92.3974
  20
 134.464
  30
0.0
  40
 1.92000
  50
 90.0000
  51
 180.000
   0
LINE
   8
LEVEL001
   6
CONTINUOUS
  62
7
  10
 90.4774
  20
 134.464
  30
0.0
  11
 90.4774
  21
 88.8637
  31
0.0
   0
ARC
   8
LEVEL001
   6
CONTINUOUS
  62
7
  10
 107.997
  20
 105.852
  30
0.0
  40
 49.2515
  50
 63.9876
  51
 116.012
   0
ARC
   8
LEVEL001
   6
CONTINUOUS
  62
7
  10
 132.281
  20
 139.932
  30
0.0
  40
 9.60000
  50
 31.2586
  51
 79.5905
   0
ARC
   8
LEVEL001
   6
CONTINUOUS
  62
7
  10
 107.998
  20
 7.74362
  30
0.0
  40
 144.000
  50
 79.5908
  51
 81.3733
   0
ARC
   8
LEVEL001
   6
CONTINUOUS
  62
7
  10
 102.943
  20
 122.123
  30
0.0
  40
 43.9200
  50
 4.22220
  51
 31.2588
   0
LINE
   8
LEVEL001
   6
CONTINUOUS
  62
7
  10
 87.8374
  20
 96.0637
  30
0.0
  11
 87.8374
  21
 98.4650
  31
0.0
   0
ARC
   8
LEVEL001
   6
CONTINUOUS
  62
7
  10
 149.998
  20
 102.380
  30
0.0
  40
 0.480000
  50
 0.219328E-3
  51
 80.0854
   0
LINE
   8
LEVEL001
   6
CONTINUOUS
  62
7
  10
 148.873
  20
 103.064
  30
0.0
  11
 150.080
  21
 102.853
  31
0.0
   0
ARC
   8
LEVEL001
   6
CONTINUOUS
  62
7
  10
 149.121
  20
 104.483
  30
0.0
  40
 1.44000
  50
 182.500
  51
 260.083
   0
LINE
   8
LEVEL001
   6
CONTINUOUS
  62
7
  10
 146.768
  20
 125.357
  30
0.0
  11
 147.682
  21
 104.420
  31
0.0
   0
ARC
   8
LEVEL001
   6
CONTINUOUS
  62
7
  10
 123.357
  20
 146.481
  30
0.0
  40
 3.84000
  50
0.0
  51
 65.4436
   0
ARC
   8
LEVEL001
   6
CONTINUOUS
  62
7
  10
 119.997
  20
 145.770
  30
0.0
  40
 7.20000
  50
 270.000
  51
0.0
   0
LINE
   8
LEVEL001
   6
CONTINUOUS
  62
7
  10
 127.197
  20
 146.481
  30
0.0
  11
 127.197
  21
 145.770
  31
0.0
   0
ARC
   8
LEVEL001
   6
CONTINUOUS
  62
7
  10
 124.317
  20
 147.782
  30
0.0
  40
 0.960000
  50
0.0
  51
 83.4480
   0
ARC
   8
LEVEL001
   6
CONTINUOUS
  62
7
  10
 124.317
  20
 147.424
  30
0.0
  40
 0.960000
  50
 270.000
  51
0.0
   0
LINE
   8
LEVEL001
   6
CONTINUOUS
  62
7
  10
 125.277
  20
 147.782
  30
0.0
  11
 125.277
  21
 147.424
  31
0.0
   0
ARC
   8
LEVEL001
   6
CONTINUOUS
  62
7
  10
 119.517
  20
 147.424
  30
0.0
  40
 7.20000
  50
 270.000
  51
 352.338
   0
ARC
   8
LEVEL001
   6
CONTINUOUS
  62
7
  10
 123.597
  20
 134.464
  30
0.0
  40
 2.40000
  50
0.0
  51
 90.0000
   0
LINE
   8
LEVEL001
   6
CONTINUOUS
  62
7
  10
 125.997
  20
 100.864
  30
0.0
  11
 125.997
  21
 134.464
  31
0.0
   0
ARC
   8
LEVEL001
   6
CONTINUOUS
  62
7
  10
 123.597
  20
 134.464
  30
0.0
  40
 1.92000
  50
0.0
  51
 90.0000
   0
LINE
   8
LEVEL001
   6
CONTINUOUS
  62
7
  10
 125.517
  20
 134.464
  30
0.0
  11
 125.517
  21
 88.8637
  31
0.0
   0
LINE
   8
LEVEL001
   6
CONTINUOUS
  62
7
  10
 147.733
  20
 103.264
  30
0.0
  11
 125.997
  21
 103.264
  31
0.0
   0
LINE
   8
LEVEL001
   6
CONTINUOUS
  62
7
  10
 150.238
  20
 98.4635
  30
0.0
  11
 126.081
  21
 98.4665
  31
0.0
   0
ARC
   8
LEVEL001
   6
CONTINUOUS
  62
7
  10
 140.130
  20
 84.0637
  30
0.0
  40
 7.20000
  50
 270.000
  51
 358.000
   0
LINE
   8
LEVEL001
   6
CONTINUOUS
  62
7
  10
 147.837
  20
 98.4638
  30
0.0
  11
 147.326
  21
 83.8125
  31
0.0
   0
ARC
   8
LEVEL001
   6
CONTINUOUS
  62
7
  10
 150.238
  20
 98.7035
  30
0.0
  40
 0.240000
  50
 269.986
  51
 0.170755E-5
   0
LINE
   8
LEVEL001
   6
CONTINUOUS
  62
7
  10
 150.478
  20
 102.380
  30
0.0
  11
 150.478
  21
 98.7035
  31
0.0
   0
ARC
   8
LEVEL001
   6
CONTINUOUS
  62
7
  10
 127.763
  20
 77.8238
  30
0.0
  40
 0.960000
  50
 182.001
  51
 270.000
   0
LINE
   8
LEVEL001
   6
CONTINUOUS
  62
7
  10
 125.997
  20
 100.864
  30
0.0
  11
 126.803
  21
 77.7902
  31
0.0
   0
ARC
   8
LEVEL001
   6
CONTINUOUS
  62
7
  10
 123.597
  20
 88.8637
  30
0.0
  40
 1.92000
  50
 270.000
  51
0.0
   0
ARC
   8
LEVEL001
   6
CONTINUOUS
  62
7
  10
 86.9336
  20
 73.5038
  30
0.0
  40
 0.480000
  50
 270.001
  51
 352.869
   0
ARC
   8
LEVEL001
   6
CONTINUOUS
  62
7
  10
 88.6848
  20
 75.9038
  30
0.0
  40
 0.960000
  50
 89.9983
  51
 172.876
   0
LINE
   8
LEVEL001
   6
CONTINUOUS
  62
7
  10
 87.4099
  20
 73.4442
  30
0.0
  11
 87.7322
  21
 76.0228
  31
0.0
   0
ARC
   8
LEVEL001
   6
CONTINUOUS
  62
7
  10
 135.894
  20
 73.5038
  30
0.0
  40
 0.480000
  50
 270.001
  51
 352.869
   0
ARC
   8
LEVEL001
   6
CONTINUOUS
  62
7
  10
 137.645
  20
 75.9038
  30
0.0
  40
 0.960000
  50
 89.9983
  51
 172.876
   0
LINE
   8
LEVEL001
   6
CONTINUOUS
  62
7
  10
 136.370
  20
 73.4442
  30
0.0
  11
 136.692
  21
 76.0228
  31
0.0
   0
ARC
   8
LEVEL001
   6
CONTINUOUS
  62
7
  10
 132.477
  20
 73.0238
  30
0.0
  40
 2.40000
  50
 180.000
  51
0.0
   0
ARC
   8
LEVEL001
   6
CONTINUOUS
  62
7
  10
 129.061
  20
 73.5038
  30
0.0
  40
 0.480000
  50
 187.131
  51
 269.999
   0
ARC
   8
LEVEL001
   6
CONTINUOUS
  62
7
  10
 127.310
  20
 75.9038
  30
0.0
  40
 0.960000
  50
 7.12436
  51
 90.0000
   0
LINE
   8
LEVEL001
   6
CONTINUOUS
  62
7
  10
 128.585
  20
 73.4442
  30
0.0
  11
 128.262
  21
 76.0228
  31
0.0
   0
LINE
   8
LEVEL001
   6
CONTINUOUS
  62
7
  10
 129.061
  20
 73.0238
  30
0.0
  11
 135.894
  21
 73.0238
  31
0.0
   0
LINE
   8
LEVEL001
   6
CONTINUOUS
  62
7
  10
 92.3974
  20
 86.9437
  30
0.0
  11
 123.597
  21
 86.9437
  31
0.0
   0
LINE
   8
LEVEL001
   6
CONTINUOUS
  62
7
  10
 123.597
  20
 136.384
  30
0.0
  11
 92.3974
  21
 136.384
  31
0.0
   0
LINE
   8
LEVEL001
   6
CONTINUOUS
  62
7
  10
 92.3974
  20
 136.864
  30
0.0
  11
 123.597
  21
 136.864
  31
0.0
   0
LINE
   8
LEVEL001
   6
CONTINUOUS
  62
7
  10
 95.9974
  20
 138.570
  30
0.0
  11
 119.997
  21
 138.570
  31
0.0
   0
LINE
   8
LEVEL001
   6
CONTINUOUS
  62
7
  10
 119.517
  20
 140.224
  30
0.0
  11
 96.4774
  21
 140.224
  31
0.0
   0
LINE
   8
LEVEL001
   6
CONTINUOUS
  62
7
  10
 91.6774
  20
 146.464
  30
0.0
  11
 124.317
  21
 146.464
  31
0.0
   0
ARC
   8
LEVEL001
   6
CONTINUOUS
  62
7
  10
 107.997
  20
 5.67600
  30
0.0
  40
 144.000
  50
 83.4486
  51
 96.5513
   0
ARC
   8
LEVEL001
   6
CONTINUOUS
  62
7
  10
 107.997
  20
 112.864
  30
0.0
  40
 40.8000
  50
 65.4438
  51
 114.556
   0
ARC
   8
LEVEL001
   6
CONTINUOUS
  62
7
  10
 102.237
  20
 105.426
  30
0.0
  40
 1.44000
  50
 90.0000
  51
 180.000
   0
LINE
   8
LEVEL001
   6
CONTINUOUS
  62
7
  10
 102.237
  20
 106.866
  30
0.0
  11
 113.757
  21
 106.866
  31
0.0
   0
ARC
   8
LEVEL001
   6
CONTINUOUS
  62
7
  10
 113.757
  20
 105.426
  30
0.0
  40
 1.44000
  50
0.0
  51
 90.0000
   0
LINE
   8
LEVEL001
   6
CONTINUOUS
  62
7
  10
 115.197
  20
 105.426
  30
0.0
  11
 115.197
  21
 96.3056
  31
0.0
   0
ARC
   8
LEVEL001
   6
CONTINUOUS
  62
7
  10
 113.757
  20
 96.3056
  30
0.0
  40
 1.44000
  50
 270.000
  51
 0.113086E-11
   0
LINE
   8
LEVEL001
   6
CONTINUOUS
  62
7
  10
 113.757
  20
 94.8656
  30
0.0
  11
 102.237
  21
 94.8656
  31
0.0
   0
ARC
   8
LEVEL001
   6
CONTINUOUS
  62
7
  10
 102.237
  20
 96.3056
  30
0.0
  40
 1.44000
  50
 180.000
  51
 270.000
   0
LINE
   8
LEVEL001
   6
CONTINUOUS
  62
7
  10
 100.797
  20
 96.3056
  30
0.0
  11
 100.797
  21
 105.426
  31
0.0
   0
LINE
   8
LEVEL001
   6
CONTINUOUS
  62
7
  10
 95.9976
  20
 86.9395
  30
0.0
  11
 95.9974
  21
 78.3038
  31
0.0
   0
ARC
   8
LEVEL001
   6
CONTINUOUS
  62
7
  10
 94.5574
  20
 78.3038
  30
0.0
  40
 1.44000
  50
 270.000
  51
0.0
   0
LINE
   8
LEVEL001
   6
CONTINUOUS
  62
7
  10
 119.997
  20
 86.9395
  30
0.0
  11
 119.997
  21
 78.3038
  31
0.0
   0
ARC
   8
LEVEL001
   6
CONTINUOUS
  62
7
  10
 121.437
  20
 78.3038
  30
0.0
  40
 1.44000
  50
 180.000
  51
 270.000
   0
LINE
   8
LEVEL001
   6
DASHDOT
  62
1
  10
 83.5174
  20
 78.1780
  30
0.0
  11
 83.5174
  21
 69.7060
  31
0.0
   0
LINE
   8
LEVEL001
   6
DASHDOT
  62
1
  10
 132.477
  20
 78.1780
  30
0.0
  11
 132.477
  21
 69.6271
  31
0.0
   0
LINE
   8
LEVEL001
   6
CONTINUOUS
  62
1
  10
 109.997
  20
 155.104
  30
0.0
  11
 175.784
  21
 155.104
  31
0.0
   0
LINE
   8
LEVEL001
   6
CONTINUOUS
  62
1
  10
 134.477
  20
 70.6238
  30
0.0
  11
 175.784
  21
 70.6238
  31
0.0
   0
LINE
   8
LEVEL001
   6
CONTINUOUS
  62
1
  10
 173.784
  20
 155.104
  30
0.0
  11
 173.784
  21
 70.6238
  31
0.0
   0
LINE
   8
LEVEL001
   6
CONTINUOUS
  62
1
  10
 173.784
  20
 155.104
  30
0.0
  11
 173.257
  21
 151.104
  31
0.0
   0
LINE
   8
LEVEL001
   6
CONTINUOUS
  62
1
  10
 173.784
  20
 155.104
  30
0.0
  11
 174.310
  21
 151.104
  31
0.0
   0
LINE
   8
LEVEL001
   6
CONTINUOUS
  62
1
  10
 173.784
  20
 70.6238
  30
0.0
  11
 174.310
  21
 74.6238
  31
0.0
   0
LINE
   8
LEVEL001
   6
CONTINUOUS
  62
1
  10
 173.784
  20
 70.6238
  30
0.0
  11
 173.257
  21
 74.6238
  31
0.0
   0
TEXT
   8
LEVEL001
  62
1
  10
 171.212
  20
 103.864
  30
0.0
  40
 6.00000
   1
176
  50
 90.0000
   7
STANDARD
  72
1
  11
 171.212
  21
 112.864
  31
0.0
   0
TEXT
   8
LEVEL001
  62
7
  10
 68.9974
  20
 6.48657
  30
0.0
  40
 12.0000
   1
‚r‚k‚k series
   7
STANDARD
  72
1
  11
 107.997
  21
 14.4866
  31
0.0
  73
2
   0
LINE
   8
LEVEL001
   6
CONTINUOUS
  62
1
  10
 83.5174
  20
 67.7060
  30
0.0
  11
 83.5174
  21
 55.9866
  31
0.0
   0
LINE
   8
LEVEL001
   6
CONTINUOUS
  62
1
  10
 132.477
  20
 67.6271
  30
0.0
  11
 132.477
  21
 55.9866
  31
0.0
   0
LINE
   8
LEVEL001
   6
CONTINUOUS
  62
1
  10
 83.5174
  20
 57.4866
  30
0.0
  11
 132.477
  21
 57.4866
  31
0.0
   0
LINE
   8
LEVEL001
   6
CONTINUOUS
  62
1
  10
 83.5174
  20
 57.4866
  30
0.0
  11
 87.5174
  21
 56.9600
  31
0.0
   0
LINE
   8
LEVEL001
   6
CONTINUOUS
  62
1
  10
 83.5174
  20
 57.4866
  30
0.0
  11
 87.5174
  21
 58.0132
  31
0.0
   0
LINE
   8
LEVEL001
   6
CONTINUOUS
  62
1
  10
 132.477
  20
 57.4866
  30
0.0
  11
 128.477
  21
 58.0132
  31
0.0
   0
LINE
   8
LEVEL001
   6
CONTINUOUS
  62
1
  10
 132.477
  20
 57.4866
  30
0.0
  11
 128.477
  21
 56.9600
  31
0.0
   0
TEXT
   8
LEVEL001
  62
1
  10
 98.9974
  20
 58.9866
  30
0.0
  40
 6.00000
   1
102
   7
STANDARD
  72
1
  11
 107.997
  21
 58.9866
  31
0.0
   0
LINE
   8
LEVEL001
   6
CONTINUOUS
  62
1
  10
 65.7570
  20
 96.4635
  30
0.0
  11
 65.7570
  21
 40.4866
  31
0.0
   0
LINE
   8
LEVEL001
   6
CONTINUOUS
  62
1
  10
 150.478
  20
 96.7035
  30
0.0
  11
 150.478
  21
 40.4866
  31
0.0
   0
LINE
   8
LEVEL001
   6
CONTINUOUS
  62
1
  10
 65.7570
  20
 42.4866
  30
0.0
  11
 150.478
  21
 42.4866
  31
0.0
   0
LINE
   8
LEVEL001
   6
CONTINUOUS
  62
1
  10
 65.7570
  20
 42.4866
  30
0.0
  11
 69.7570
  21
 41.9600
  31
0.0
   0
LINE
   8
LEVEL001
   6
CONTINUOUS
  62
1
  10
 65.7570
  20
 42.4866
  30
0.0
  11
 69.7570
  21
 43.0132
  31
0.0
   0
LINE
   8
LEVEL001
   6
CONTINUOUS
  62
1
  10
 150.478
  20
 42.4866
  30
0.0
  11
 146.478
  21
 43.0132
  31
0.0
   0
LINE
   8
LEVEL001
   6
CONTINUOUS
  62
1
  10
 150.478
  20
 42.4866
  30
0.0
  11
 146.478
  21
 41.9600
  31
0.0
   0
TEXT
   8
LEVEL001
  62
1
  10
 99.1174
  20
 45.0580
  30
0.0
  40
 6.00000
   1
177
   7
STANDARD
  72
1
  11
 108.117
  21
 45.0580
  31
0.0
   0
ENDSEC
   0
EOF
