   0
SECTION
   2
HEADER
   9
$LIMMIN
  10
0.0
  20
0.0
   9
$LIMMAX
  10
 210.000
  20
 297.000
   9
$EXTMIN
  10
0.0
  20
0.0
   9
$EXTMAX
  10
 210.000
  20
 297.000
   9
$LTSCALE
  40
 5.94000
   0
ENDSEC
   0
SECTION
   2
TABLES
  0
TABLE
  2
LTYPE
 70
    25
  0
LTYPE
  2
CONTINUOUS
 70
    64
  3
Solid line
 72
    65
 73
     0
 40
0.0
  0
LTYPE
  2
BORDER
 70
    64
  3
__ __ . __ __ . __ __ . __ __ . __ __ . __ __ .
 72
    65
 73
     6
 40
1.75
 49
0.5
 49
-0.25
 49
0.5
 49
-0.25
 49
0.0
 49
-0.25
  0
LTYPE
  2
BORDER2
 70
    64
  3
__.__.__.__.__.__.__.__.__.__.__.__.__.__.__.__
 72
    65
 73
     6
 40
0.875
 49
0.25
 49
-0.125
 49
0.25
 49
-0.125
 49
0.0
 49
-0.125
  0
LTYPE
  2
BORDERX2
 70
    64
  3
____  ____  .  ____  ____  .  ____  ____  .  __
 72
    65
 73
     6
 40
3.5
 49
1.0
 49
-0.5
 49
1.0
 49
-0.5
 49
0.0
 49
-0.5
  0
LTYPE
  2
CENTER
 70
    64
  3
____ _ ____ _ ____ _ ____ _ ____ _ ____ _ ____ 
 72
    65
 73
     4
 40
2.0
 49
1.25
 49
-0.25
 49
0.25
 49
-0.25
  0
LTYPE
  2
CENTER2
 70
    64
  3
___ _ ___ _ ___ _ ___ _ ___ _ ___ _ ___ _ ___ _
 72
    65
 73
     4
 40
1.125
 49
0.75
 49
-0.125
 49
0.125
 49
-0.125
  0
LTYPE
  2
CENTERX2
 70
    64
  3
________  __  ________  __  ________  __  _____
 72
    65
 73
     4
 40
4.0
 49
2.5
 49
-0.5
 49
0.5
 49
-0.5
  0
LTYPE
  2
DASHDOT
 70
    64
  3
__ . __ . __ . __ . __ . __ . __ . __ . __ . __
 72
    65
 73
     4
 40
1.0
 49
0.5
 49
-0.25
 49
0.0
 49
-0.25
  0
LTYPE
  2
DASHDOT2
 70
    64
  3
_._._._._._._._._._._._._._._._._._._._._._._._
 72
    65
 73
     4
 40
0.5
 49
0.25
 49
-0.125
 49
0.0
 49
-0.125
  0
LTYPE
  2
DASHDOTX2
 70
    64
  3
____  .  ____  .  ____  .  ____  .  ____  .  __
 72
    65
 73
     4
 40
2.0
 49
1.0
 49
-0.5
 49
0.0
 49
-0.5
  0
LTYPE
  2
DASHED
 70
    64
  3
__ __ __ __ __ __ __ __ __ __ __ __ __ __ __ __
 72
    65
 73
     2
 40
0.75
 49
0.5
 49
-0.25
  0
LTYPE
  2
DASHED2
 70
    64
  3
_ _ _ _ _ _ _ _ _ _ _ _ _ _ _ _ _ _ _ _ _ _ _ _
 72
    65
 73
     2
 40
0.375
 49
0.25
 49
-0.125
  0
LTYPE
  2
DASHEDX2
 70
    64
  3
____  ____  ____  ____  ____  ____  ____  ____ 
 72
    65
 73
     2
 40
1.5
 49
1.0
 49
-0.5
  0
LTYPE
  2
DIVIDE
 70
    64
  3
____ . . ____ . . ____ . . ____ . . ____ . . __
 72
    65
 73
     6
 40
1.25
 49
0.5
 49
-0.25
 49
0.0
 49
-0.25
 49
0.0
 49
-0.25
  0
LTYPE
  2
DIVIDE2
 70
    64
  3
__..__..__..__..__..__..__..__..__..__..__..__.
 72
    65
 73
     6
 40
0.625
 49
0.25
 49
-0.125
 49
0.0
 49
-0.125
 49
0.0
 49
-0.125
  0
LTYPE
  2
DIVIDEX2
 70
    64
  3
________  .  .  ________  .  .  ________  .  . 
 72
    65
 73
     6
 40
2.5
 49
1.0
 49
-0.5
 49
0.0
 49
-0.5
 49
0.0
 49
-0.5
  0
LTYPE
  2
DOT
 70
    64
  3
. . . . . . . . . . . . . . . . . . . . . . . .
 72
    65
 73
     2
 40
0.25
 49
0.0
 49
-0.25
  0
LTYPE
  2
DOT2
 70
    64
  3
...............................................
 72
    65
 73
     2
 40
0.125
 49
0.0
 49
-0.125
  0
LTYPE
  2
DOTX2
 70
    64
  3
.  .  .  .  .  .  .  .  .  .  .  .  .  .  .  . 
 72
    65
 73
     2
 40
0.5
 49
0.0
 49
-0.5
  0
LTYPE
  2
HIDDEN
 70
    64
  3
__ __ __ __ __ __ __ __ __ __ __ __ __ __ __ __
 72
    65
 73
     2
 40
0.375
 49
0.25
 49
-0.125
  0
LTYPE
  2
HIDDEN2
 70
    64
  3
_ _ _ _ _ _ _ _ _ _ _ _ _ _ _ _ _ _ _ _ _ _ _ _
 72
    65
 73
     2
 40
0.1875
 49
0.125
 49
-0.0625
  0
LTYPE
  2
HIDDENX2
 70
    64
  3
____ ____ ____ ____ ____ ____ ____ ____ ____ __
 72
    65
 73
     2
 40
0.75
 49
0.5
 49
-0.25
  0
LTYPE
  2
PHANTOM
 70
    64
  3
______  __  __  ______  __  __  ______  __  __ 
 72
    65
 73
     6
 40
2.5
 49
1.25
 49
-0.25
 49
0.25
 49
-0.25
 49
0.25
 49
-0.25
  0
LTYPE
  2
PHANTOM2
 70
    64
  3
___ _ _ ___ _ _ ___ _ _ ___ _ _ ___ _ _ ___ _ _
 72
    65
 73
     6
 40
1.25
 49
0.625
 49
-0.125
 49
0.125
 49
-0.125
 49
0.125
 49
-0.125
  0
LTYPE
  2
PHANTOMX2
 70
    64
  3
____________    ____    ____    ____________   
 72
    65
 73
     6
 40
5.0
 49
2.5
 49
-0.5
 49
0.5
 49
-0.5
 49
0.5
 49
-0.5
  0
ENDTAB
  0
TABLE
  2
STYLE
 70
     2
  0
STYLE
  2
STANDARD
 70
0
 40
0.0
 41
1.0
 50
0.0
 71
0
 42
0.2
  3
TXT
  4
BIGFONT
  0
STYLE
  2
STANDARD1
 70
     4
 40
0.0
 41
1.0
 50
0.0
 71
     0
 42
0.2
  3
TXT
  4
BIGFONT
  0
ENDTAB
   0
TABLE
   2
LAYER
  70
2
   0
LAYER
   2
0
  70
0
  62
7
   6
CONTINUOUS
   0
LAYER
   2
LEVEL001
  70
0
  62
7
   6
CONTINUOUS
   0
ENDTAB
   0
ENDSEC
   0
SECTION
   2
ENTITIES
   0
LINE
   8
LEVEL001
   6
CONTINUOUS
  62
7
  10
 139.662
  20
 138.913
  30
0.0
  11
 139.662
  21
 138.463
  31
0.0
   0
ARC
   8
LEVEL001
   6
CONTINUOUS
  62
7
  10
 134.305
  20
 89.4128
  30
0.0
  40
 5.40000
  50
 270.000
  51
 359.000
   0
LINE
   8
LEVEL001
   6
CONTINUOUS
  62
7
  10
 140.562
  20
 138.463
  30
0.0
  11
 139.704
  21
 89.3186
  31
0.0
   0
LINE
   8
LEVEL001
   6
CONTINUOUS
  62
7
  10
 22.6188
  20
 84.0128
  30
0.0
  11
 134.305
  21
 84.0128
  31
0.0
   0
POLYLINE
   8
LEVEL001
   6
CONTINUOUS
  62
7
  66
1
  10
0.0
  20
0.0
  30
0.0
  70
0
   0
VERTEX
   8
LEVEL001
   6
CONTINUOUS
  62
7
  10
 89.7119
  20
 84.0128
  30
0.0
   0
VERTEX
   8
LEVEL001
   6
CONTINUOUS
  62
7
  10
 89.7119
  20
 82.2128
  30
0.0
   0
VERTEX
   8
LEVEL001
   6
CONTINUOUS
  62
7
  10
 100.512
  20
 82.2128
  30
0.0
   0
VERTEX
   8
LEVEL001
   6
CONTINUOUS
  62
7
  10
 100.512
  20
 84.0128
  30
0.0
   0
SEQEND
   0
POLYLINE
   8
LEVEL001
   6
CONTINUOUS
  62
7
  66
1
  10
0.0
  20
0.0
  30
0.0
  70
0
   0
VERTEX
   8
LEVEL001
   6
CONTINUOUS
  62
7
  10
 89.7119
  20
 82.2128
  30
0.0
   0
VERTEX
   8
LEVEL001
   6
CONTINUOUS
  62
7
  10
 93.3119
  20
 77.7128
  30
0.0
   0
VERTEX
   8
LEVEL001
   6
CONTINUOUS
  62
7
  10
 96.9119
  20
 77.7128
  30
0.0
   0
VERTEX
   8
LEVEL001
   6
CONTINUOUS
  62
7
  10
 100.512
  20
 82.2128
  30
0.0
   0
SEQEND
   0
POLYLINE
   8
LEVEL001
   6
CONTINUOUS
  62
7
  66
1
  10
0.0
  20
0.0
  30
0.0
  70
0
   0
VERTEX
   8
LEVEL001
   6
CONTINUOUS
  62
7
  10
 56.4119
  20
 84.0128
  30
0.0
   0
VERTEX
   8
LEVEL001
   6
CONTINUOUS
  62
7
  10
 56.4119
  20
 82.2128
  30
0.0
   0
VERTEX
   8
LEVEL001
   6
CONTINUOUS
  62
7
  10
 67.2119
  20
 82.2128
  30
0.0
   0
VERTEX
   8
LEVEL001
   6
CONTINUOUS
  62
7
  10
 67.2119
  20
 84.0128
  30
0.0
   0
SEQEND
   0
POLYLINE
   8
LEVEL001
   6
CONTINUOUS
  62
7
  66
1
  10
0.0
  20
0.0
  30
0.0
  70
0
   0
VERTEX
   8
LEVEL001
   6
CONTINUOUS
  62
7
  10
 56.4119
  20
 82.2128
  30
0.0
   0
VERTEX
   8
LEVEL001
   6
CONTINUOUS
  62
7
  10
 60.0119
  20
 77.7128
  30
0.0
   0
VERTEX
   8
LEVEL001
   6
CONTINUOUS
  62
7
  10
 63.6119
  20
 77.7128
  30
0.0
   0
VERTEX
   8
LEVEL001
   6
CONTINUOUS
  62
7
  10
 67.2119
  20
 82.2128
  30
0.0
   0
SEQEND
   0
ARC
   8
LEVEL001
   6
CONTINUOUS
  62
7
  10
 110.783
  20
 83.1128
  30
0.0
  40
 0.900000
  50
 1.00021
  51
 90.0017
   0
ARC
   8
LEVEL001
   6
CONTINUOUS
  62
7
  10
 127.141
  20
 83.1128
  30
0.0
  40
 0.900000
  50
 89.9983
  51
 179.000
   0
POLYLINE
   8
LEVEL001
   6
CONTINUOUS
  62
7
  66
1
  10
0.0
  20
0.0
  30
0.0
  70
0
   0
VERTEX
   8
LEVEL001
   6
CONTINUOUS
  62
7
  10
 111.683
  20
 83.1285
  30
0.0
   0
VERTEX
   8
LEVEL001
   6
CONTINUOUS
  62
7
  10
 111.762
  20
 78.6128
  30
0.0
   0
VERTEX
   8
LEVEL001
   6
CONTINUOUS
  62
7
  10
 126.162
  20
 78.6128
  30
0.0
   0
VERTEX
   8
LEVEL001
   6
CONTINUOUS
  62
7
  10
 126.241
  20
 83.1285
  30
0.0
   0
SEQEND
   0
ARC
   8
LEVEL001
   6
CONTINUOUS
  62
7
  10
 118.962
  20
 79.5128
  30
0.0
  40
 4.50000
  50
 191.537
  51
 348.463
   0
ARC
   8
LEVEL001
   6
CONTINUOUS
  62
7
  10
 46.1406
  20
 83.1128
  30
0.0
  40
 0.900000
  50
 89.9983
  51
 179.000
   0
ARC
   8
LEVEL001
   6
CONTINUOUS
  62
7
  10
 29.7832
  20
 83.1128
  30
0.0
  40
 0.900000
  50
 1.00021
  51
 90.0017
   0
POLYLINE
   8
LEVEL001
   6
CONTINUOUS
  62
7
  66
1
  10
0.0
  20
0.0
  30
0.0
  70
0
   0
VERTEX
   8
LEVEL001
   6
CONTINUOUS
  62
7
  10
 45.2408
  20
 83.1285
  30
0.0
   0
VERTEX
   8
LEVEL001
   6
CONTINUOUS
  62
7
  10
 45.1619
  20
 78.6128
  30
0.0
   0
VERTEX
   8
LEVEL001
   6
CONTINUOUS
  62
7
  10
 30.7619
  20
 78.6128
  30
0.0
   0
VERTEX
   8
LEVEL001
   6
CONTINUOUS
  62
7
  10
 30.6830
  20
 83.1285
  30
0.0
   0
SEQEND
   0
ARC
   8
LEVEL001
   6
CONTINUOUS
  62
7
  10
 37.9619
  20
 79.5128
  30
0.0
  40
 4.50000
  50
 191.537
  51
 348.463
   0
ARC
   8
LEVEL001
   6
CONTINUOUS
  62
7
  10
 135.054
  20
 145.045
  30
0.0
  40
 5.40000
  50
 1.00014
  51
 55.3726
   0
LINE
   8
LEVEL001
   6
CONTINUOUS
  62
7
  10
 140.562
  20
 138.913
  30
0.0
  11
 140.453
  21
 145.140
  31
0.0
   0
ARC
   8
LEVEL001
   6
CONTINUOUS
  62
7
  10
 121.779
  20
 154.213
  30
0.0
  40
 5.40000
  50
 55.3732
  51
 90.0005
   0
LINE
   8
LEVEL001
   6
CONTINUOUS
  62
7
  10
 138.123
  20
 149.489
  30
0.0
  11
 124.847
  21
 158.656
  31
0.0
   0
LINE
   8
LEVEL001
   6
CONTINUOUS
  62
7
  10
 121.779
  20
 159.613
  30
0.0
  11
 35.1452
  21
 159.613
  31
0.0
   0
LINE
   8
LEVEL001
   6
CONTINUOUS
  62
7
  10
 17.2619
  20
 138.913
  30
0.0
  11
 17.2619
  21
 138.463
  31
0.0
   0
LINE
   8
LEVEL001
   6
CONTINUOUS
  62
7
  10
 16.3619
  20
 138.463
  30
0.0
  11
 17.2197
  21
 89.3186
  31
0.0
   0
ARC
   8
LEVEL001
   6
CONTINUOUS
  62
7
  10
 21.8697
  20
 145.045
  30
0.0
  40
 5.40000
  50
 124.627
  51
 179.000
   0
LINE
   8
LEVEL001
   6
CONTINUOUS
  62
7
  10
 16.3619
  20
 138.913
  30
0.0
  11
 16.4705
  21
 145.140
  31
0.0
   0
ARC
   8
LEVEL001
   6
CONTINUOUS
  62
7
  10
 35.1452
  20
 154.213
  30
0.0
  40
 5.40000
  50
 89.9995
  51
 124.627
   0
LINE
   8
LEVEL001
   6
CONTINUOUS
  62
7
  10
 18.8012
  20
 149.489
  30
0.0
  11
 32.0767
  21
 158.656
  31
0.0
   0
ARC
   8
LEVEL001
   6
CONTINUOUS
  62
7
  10
 22.6189
  20
 89.4128
  30
0.0
  40
 5.40000
  50
 181.000
  51
 270.000
   0
LINE
   8
LEVEL001
   6
CONTINUOUS
  62
7
  10
 16.3619
  20
 138.913
  30
0.0
  11
 140.562
  21
 138.913
  31
0.0
   0
LINE
   8
LEVEL001
   6
CONTINUOUS
  62
7
  10
 140.562
  20
 138.463
  30
0.0
  11
 16.3619
  21
 138.463
  31
0.0
   0
LINE
   8
LEVEL001
   6
DASHDOT
  62
1
  10
 118.962
  20
 84.0128
  30
0.0
  11
 118.962
  21
 73.2782
  31
0.0
   0
LINE
   8
LEVEL001
   6
DASHDOT
  62
1
  10
 37.9619
  20
 84.0128
  30
0.0
  11
 37.9619
  21
 73.2782
  31
0.0
   0
TEXT
   8
LEVEL001
  62
7
  10
 36.4619
  20
 7.70525
  30
0.0
  40
 12.0000
   1
‚l‚j‚b‚T‚P‚O‚u
   7
STANDARD
  72
1
  11
 78.4619
  21
 15.7053
  31
0.0
  73
2
   0
ARC
   8
LEVEL001
   6
CONTINUOUS
  62
7
  10
 115.441
  20
 208.112
  30
0.0
  40
 0.900000
  50
 90.0000
  51
 179.000
   0
ARC
   8
LEVEL001
   6
CONTINUOUS
  62
7
  10
 99.0832
  20
 208.112
  30
0.0
  40
 0.900000
  50
 1.00021
  51
 90.0000
   0
POLYLINE
   8
LEVEL001
   6
CONTINUOUS
  62
7
  66
1
  10
0.0
  20
0.0
  30
0.0
  70
0
   0
VERTEX
   8
LEVEL001
   6
CONTINUOUS
  62
7
  10
 99.9830
  20
 208.128
  30
0.0
   0
VERTEX
   8
LEVEL001
   6
CONTINUOUS
  62
7
  10
 100.062
  20
 203.612
  30
0.0
   0
VERTEX
   8
LEVEL001
   6
CONTINUOUS
  62
7
  10
 114.462
  20
 203.612
  30
0.0
   0
VERTEX
   8
LEVEL001
   6
CONTINUOUS
  62
7
  10
 114.541
  20
 208.128
  30
0.0
   0
SEQEND
   0
ARC
   8
LEVEL001
   6
CONTINUOUS
  62
7
  10
 107.262
  20
 204.512
  30
0.0
  40
 4.50000
  50
 191.537
  51
 348.463
   0
ARC
   8
LEVEL001
   6
CONTINUOUS
  62
7
  10
 43.4406
  20
 208.112
  30
0.0
  40
 0.900000
  50
 90.0000
  51
 179.000
   0
ARC
   8
LEVEL001
   6
CONTINUOUS
  62
7
  10
 27.0832
  20
 208.112
  30
0.0
  40
 0.900000
  50
 1.00021
  51
 90.0000
   0
POLYLINE
   8
LEVEL001
   6
CONTINUOUS
  62
7
  66
1
  10
0.0
  20
0.0
  30
0.0
  70
0
   0
VERTEX
   8
LEVEL001
   6
CONTINUOUS
  62
7
  10
 27.9830
  20
 208.128
  30
0.0
   0
VERTEX
   8
LEVEL001
   6
CONTINUOUS
  62
7
  10
 28.0619
  20
 203.612
  30
0.0
   0
VERTEX
   8
LEVEL001
   6
CONTINUOUS
  62
7
  10
 42.4619
  20
 203.612
  30
0.0
   0
VERTEX
   8
LEVEL001
   6
CONTINUOUS
  62
7
  10
 42.5407
  20
 208.128
  30
0.0
   0
SEQEND
   0
ARC
   8
LEVEL001
   6
CONTINUOUS
  62
7
  10
 35.2619
  20
 204.512
  30
0.0
  40
 4.50000
  50
 191.537
  51
 348.463
   0
ARC
   8
LEVEL001
   6
CONTINUOUS
  62
7
  10
 136.105
  20
 214.412
  30
0.0
  40
 5.40000
  50
 270.000
  51
 359.000
   0
LINE
   8
LEVEL001
   6
CONTINUOUS
  62
7
  10
 15.4619
  20
 263.912
  30
0.0
  11
 15.4619
  21
 263.462
  31
0.0
   0
ARC
   8
LEVEL001
   6
CONTINUOUS
  62
7
  10
 20.8188
  20
 214.412
  30
0.0
  40
 5.40000
  50
 181.000
  51
 270.000
   0
LINE
   8
LEVEL001
   6
CONTINUOUS
  62
7
  10
 20.8188
  20
 209.012
  30
0.0
  11
 136.105
  21
 209.012
  31
0.0
   0
LINE
   8
LEVEL001
   6
CONTINUOUS
  62
7
  10
 14.5619
  20
 263.462
  30
0.0
  11
 15.4196
  21
 214.318
  31
0.0
   0
LINE
   8
LEVEL001
   6
CONTINUOUS
  62
7
  10
 141.462
  20
 263.912
  30
0.0
  11
 141.462
  21
 263.462
  31
0.0
   0
ARC
   8
LEVEL001
   6
CONTINUOUS
  62
7
  10
 113.370
  20
 279.212
  30
0.0
  40
 5.40000
  50
 67.1334
  51
 89.9999
   0
ARC
   8
LEVEL001
   6
CONTINUOUS
  62
7
  10
 136.867
  20
 269.303
  30
0.0
  40
 5.40000
  50
 1.00024
  51
 67.1335
   0
LINE
   8
LEVEL001
   6
CONTINUOUS
  62
7
  10
 115.468
  20
 284.188
  30
0.0
  11
 138.965
  21
 274.278
  31
0.0
   0
LINE
   8
LEVEL001
   6
CONTINUOUS
  62
7
  10
 142.266
  20
 269.397
  30
0.0
  11
 142.362
  21
 263.912
  31
0.0
   0
ARC
   8
LEVEL001
   6
CONTINUOUS
  62
7
  10
 26.9923
  20
 279.212
  30
0.0
  40
 5.40000
  50
 90.0000
  51
 140.215
   0
LINE
   8
LEVEL001
   6
CONTINUOUS
  62
7
  10
 26.9923
  20
 284.612
  30
0.0
  11
 113.370
  21
 284.612
  31
0.0
   0
ARC
   8
LEVEL001
   6
CONTINUOUS
  62
7
  10
 20.0850
  20
 270.917
  30
0.0
  40
 5.40000
  50
 140.215
  51
 179.000
   0
LINE
   8
LEVEL001
   6
CONTINUOUS
  62
7
  10
 14.5619
  20
 263.912
  30
0.0
  11
 14.6858
  21
 271.012
  31
0.0
   0
LINE
   8
LEVEL001
   6
CONTINUOUS
  62
7
  10
 22.8427
  20
 282.668
  30
0.0
  11
 15.9354
  21
 274.373
  31
0.0
   0
LINE
   8
LEVEL001
   6
CONTINUOUS
  62
7
  10
 142.362
  20
 263.912
  30
0.0
  11
 14.5619
  21
 263.912
  31
0.0
   0
LINE
   8
LEVEL001
   6
CONTINUOUS
  62
7
  10
 142.362
  20
 263.462
  30
0.0
  11
 14.5619
  21
 263.462
  31
0.0
   0
LINE
   8
LEVEL001
   6
CONTINUOUS
  62
7
  10
 142.362
  20
 263.462
  30
0.0
  11
 141.504
  21
 214.318
  31
0.0
   0
LINE
   8
LEVEL001
   6
DASHDOT
  62
1
  10
 107.262
  20
 209.012
  30
0.0
  11
 107.262
  21
 198.783
  31
0.0
   0
LINE
   8
LEVEL001
   6
DASHDOT
  62
1
  10
 35.2619
  20
 209.012
  30
0.0
  11
 35.2619
  21
 198.783
  31
0.0
   0
LINE
   8
LEVEL001
   6
CONTINUOUS
  62
1
  10
 35.2619
  20
 196.783
  30
0.0
  11
 35.2619
  21
 188.705
  31
0.0
   0
LINE
   8
LEVEL001
   6
CONTINUOUS
  62
1
  10
 107.262
  20
 196.783
  30
0.0
  11
 107.262
  21
 188.705
  31
0.0
   0
LINE
   8
LEVEL001
   6
CONTINUOUS
  62
1
  10
 35.2619
  20
 190.705
  30
0.0
  11
 107.262
  21
 190.705
  31
0.0
   0
LINE
   8
LEVEL001
   6
CONTINUOUS
  62
1
  10
 35.2619
  20
 190.705
  30
0.0
  11
 39.2619
  21
 190.179
  31
0.0
   0
LINE
   8
LEVEL001
   6
CONTINUOUS
  62
1
  10
 35.2619
  20
 190.705
  30
0.0
  11
 39.2619
  21
 191.232
  31
0.0
   0
LINE
   8
LEVEL001
   6
CONTINUOUS
  62
1
  10
 107.262
  20
 190.705
  30
0.0
  11
 103.262
  21
 191.232
  31
0.0
   0
LINE
   8
LEVEL001
   6
CONTINUOUS
  62
1
  10
 107.262
  20
 190.705
  30
0.0
  11
 103.262
  21
 190.179
  31
0.0
   0
TEXT
   8
LEVEL001
  62
1
  10
 65.2619
  20
 193.277
  30
0.0
  40
 6.00000
   1
80
   7
STANDARD
  72
1
  11
 71.2619
  21
 193.277
  31
0.0
   0
LINE
   8
LEVEL001
   6
CONTINUOUS
  62
1
  10
 37.9619
  20
 71.2782
  30
0.0
  11
 37.9619
  21
 53.7053
  31
0.0
   0
LINE
   8
LEVEL001
   6
CONTINUOUS
  62
1
  10
 118.962
  20
 71.2782
  30
0.0
  11
 118.962
  21
 53.7053
  31
0.0
   0
LINE
   8
LEVEL001
   6
CONTINUOUS
  62
1
  10
 37.9619
  20
 55.7053
  30
0.0
  11
 118.962
  21
 55.7053
  31
0.0
   0
LINE
   8
LEVEL001
   6
CONTINUOUS
  62
1
  10
 37.9619
  20
 55.7053
  30
0.0
  11
 41.9619
  21
 55.1786
  31
0.0
   0
LINE
   8
LEVEL001
   6
CONTINUOUS
  62
1
  10
 37.9619
  20
 55.7053
  30
0.0
  11
 41.9619
  21
 56.2319
  31
0.0
   0
LINE
   8
LEVEL001
   6
CONTINUOUS
  62
1
  10
 118.962
  20
 55.7053
  30
0.0
  11
 114.962
  21
 56.2319
  31
0.0
   0
LINE
   8
LEVEL001
   6
CONTINUOUS
  62
1
  10
 118.962
  20
 55.7053
  30
0.0
  11
 114.962
  21
 55.1786
  31
0.0
   0
TEXT
   8
LEVEL001
  62
1
  10
 72.4619
  20
 58.2767
  30
0.0
  40
 6.00000
   1
90
   7
STANDARD
  72
1
  11
 78.4619
  21
 58.2767
  31
0.0
   0
LINE
   8
LEVEL001
   6
CONTINUOUS
  62
1
  10
 120.962
  20
 75.0128
  30
0.0
  11
 170.462
  21
 75.0128
  31
0.0
   0
LINE
   8
LEVEL001
   6
CONTINUOUS
  62
1
  10
 123.779
  20
 159.613
  30
0.0
  11
 170.462
  21
 159.613
  31
0.0
   0
LINE
   8
LEVEL001
   6
CONTINUOUS
  62
1
  10
 168.462
  20
 75.0128
  30
0.0
  11
 168.462
  21
 159.613
  31
0.0
   0
LINE
   8
LEVEL001
   6
CONTINUOUS
  62
1
  10
 168.462
  20
 75.0128
  30
0.0
  11
 168.988
  21
 79.0128
  31
0.0
   0
LINE
   8
LEVEL001
   6
CONTINUOUS
  62
1
  10
 168.462
  20
 75.0128
  30
0.0
  11
 167.935
  21
 79.0128
  31
0.0
   0
LINE
   8
LEVEL001
   6
CONTINUOUS
  62
1
  10
 168.462
  20
 159.613
  30
0.0
  11
 167.935
  21
 155.613
  31
0.0
   0
LINE
   8
LEVEL001
   6
CONTINUOUS
  62
1
  10
 168.462
  20
 159.613
  30
0.0
  11
 168.988
  21
 155.613
  31
0.0
   0
TEXT
   8
LEVEL001
  62
1
  10
 165.890
  20
 111.313
  30
0.0
  40
 6.00000
   1
94
  50
 90.0000
   7
STANDARD
  72
1
  11
 165.890
  21
 117.313
  31
0.0
   0
LINE
   8
LEVEL001
   6
CONTINUOUS
  62
1
  10
 16.3619
  20
 136.463
  30
0.0
  11
 16.3619
  21
 33.7053
  31
0.0
   0
LINE
   8
LEVEL001
   6
CONTINUOUS
  62
1
  10
 140.562
  20
 136.463
  30
0.0
  11
 140.562
  21
 33.7053
  31
0.0
   0
LINE
   8
LEVEL001
   6
CONTINUOUS
  62
1
  10
 16.3619
  20
 35.7053
  30
0.0
  11
 140.562
  21
 35.7053
  31
0.0
   0
LINE
   8
LEVEL001
   6
CONTINUOUS
  62
1
  10
 16.3619
  20
 35.7053
  30
0.0
  11
 20.3619
  21
 35.1786
  31
0.0
   0
LINE
   8
LEVEL001
   6
CONTINUOUS
  62
1
  10
 16.3619
  20
 35.7053
  30
0.0
  11
 20.3619
  21
 36.2319
  31
0.0
   0
LINE
   8
LEVEL001
   6
CONTINUOUS
  62
1
  10
 140.562
  20
 35.7053
  30
0.0
  11
 136.562
  21
 36.2319
  31
0.0
   0
LINE
   8
LEVEL001
   6
CONTINUOUS
  62
1
  10
 140.562
  20
 35.7053
  30
0.0
  11
 136.562
  21
 35.1786
  31
0.0
   0
TEXT
   8
LEVEL001
  62
1
  10
 69.4619
  20
 38.2767
  30
0.0
  40
 6.00000
   1
138
   7
STANDARD
  72
1
  11
 78.4619
  21
 38.2767
  31
0.0
   0
LINE
   8
LEVEL001
   6
CONTINUOUS
  62
1
  10
 14.5619
  20
 261.462
  30
0.0
  11
 14.5619
  21
 173.705
  31
0.0
   0
LINE
   8
LEVEL001
   6
CONTINUOUS
  62
1
  10
 142.362
  20
 261.462
  30
0.0
  11
 142.362
  21
 173.705
  31
0.0
   0
LINE
   8
LEVEL001
   6
CONTINUOUS
  62
1
  10
 14.5619
  20
 175.705
  30
0.0
  11
 142.362
  21
 175.705
  31
0.0
   0
LINE
   8
LEVEL001
   6
CONTINUOUS
  62
1
  10
 14.5619
  20
 175.705
  30
0.0
  11
 18.5619
  21
 175.179
  31
0.0
   0
LINE
   8
LEVEL001
   6
CONTINUOUS
  62
1
  10
 14.5619
  20
 175.705
  30
0.0
  11
 18.5619
  21
 176.232
  31
0.0
   0
LINE
   8
LEVEL001
   6
CONTINUOUS
  62
1
  10
 142.362
  20
 175.705
  30
0.0
  11
 138.362
  21
 176.232
  31
0.0
   0
LINE
   8
LEVEL001
   6
CONTINUOUS
  62
1
  10
 142.362
  20
 175.705
  30
0.0
  11
 138.362
  21
 175.179
  31
0.0
   0
TEXT
   8
LEVEL001
  62
1
  10
 69.4619
  20
 178.277
  30
0.0
  40
 6.00000
   1
142
   7
STANDARD
  72
1
  11
 78.4619
  21
 178.277
  31
0.0
   0
POINT
   8
LEVEL001
  62
1
  10
 17.2197
  20
 89.3186
  30
0.0
   0
POINT
   8
LEVEL001
  62
1
  10
 78.4619
  20
 89.3186
  30
0.0
   0
POINT
   8
LEVEL001
  62
1
  10
 139.704
  20
 89.3186
  30
0.0
   0
LINE
   8
LEVEL001
   6
CONTINUOUS
  62
7
  10
 145.520
  20
 238.262
  30
0.0
  11
 145.520
  21
 221.162
  31
0.0
   0
POLYLINE
   8
LEVEL001
   6
CONTINUOUS
  62
7
  66
1
  10
0.0
  20
0.0
  30
0.0
  70
0
   0
VERTEX
   8
LEVEL001
   6
CONTINUOUS
  62
7
  10
 151.343
  20
 236.912
  30
0.0
   0
VERTEX
   8
LEVEL001
   6
CONTINUOUS
  62
7
  10
 146.406
  20
 236.912
  30
0.0
   0
VERTEX
   8
LEVEL001
   6
CONTINUOUS
  62
7
  10
 146.406
  20
 222.512
  30
0.0
   0
VERTEX
   8
LEVEL001
   6
CONTINUOUS
  62
7
  10
 151.343
  20
 222.512
  30
0.0
   0
SEQEND
   0
LINE
   8
LEVEL001
   6
CONTINUOUS
  62
7
  10
 151.343
  20
 236.912
  30
0.0
  11
 151.343
  21
 222.512
  31
0.0
   0
POINT
   8
LEVEL001
  62
7
  10
 145.520
  20
 233.312
  30
0.0
   0
LINE
   8
LEVEL001
   6
CONTINUOUS
  62
7
  10
 146.406
  20
 233.087
  30
0.0
  11
 151.343
  21
 233.087
  31
0.0
   0
ARC
   8
LEVEL001
   6
CONTINUOUS
  62
7
  10
 151.536
  20
 232.914
  30
0.0
  40
 0.180000
  50
 180.003
  51
 270.000
   0
POINT
   8
LEVEL001
  62
7
  10
 151.356
  20
 232.734
  30
0.0
   0
POLYLINE
   8
LEVEL001
   6
CONTINUOUS
  62
7
  66
1
  10
0.0
  20
0.0
  30
0.0
  70
0
   0
VERTEX
   8
LEVEL001
   6
CONTINUOUS
  62
7
  10
 151.536
  20
 232.734
  30
0.0
   0
VERTEX
   8
LEVEL001
   6
CONTINUOUS
  62
7
  10
 156.367
  20
 232.734
  30
0.0
   0
VERTEX
   8
LEVEL001
   6
CONTINUOUS
  62
7
  10
 159.056
  20
 232.397
  30
0.0
   0
SEQEND
   0
LINE
   8
LEVEL001
   6
CONTINUOUS
  62
7
  10
 145.070
  20
 238.712
  30
0.0
  11
 145.520
  21
 238.262
  31
0.0
   0
POINT
   8
LEVEL001
  62
7
  10
 145.520
  20
 238.712
  30
0.0
   0
LINE
   8
LEVEL001
   6
CONTINUOUS
  62
7
  10
 159.056
  20
 226.691
  30
0.0
  11
 159.056
  21
 232.397
  31
0.0
   0
POLYLINE
   8
LEVEL001
   6
CONTINUOUS
  62
7
  66
1
  10
0.0
  20
0.0
  30
0.0
  70
0
   0
VERTEX
   8
LEVEL001
   6
CONTINUOUS
  62
7
  10
 159.056
  20
 232.734
  30
0.0
   0
VERTEX
   8
LEVEL001
   6
CONTINUOUS
  62
7
  10
 159.731
  20
 232.734
  30
0.0
   0
VERTEX
   8
LEVEL001
   6
CONTINUOUS
  62
7
  10
 162.420
  20
 232.397
  30
0.0
   0
SEQEND
   0
LINE
   8
LEVEL001
   6
CONTINUOUS
  62
7
  10
 159.056
  20
 232.734
  30
0.0
  11
 159.056
  21
 232.397
  31
0.0
   0
POLYLINE
   8
LEVEL001
   6
CONTINUOUS
  62
7
  66
1
  10
0.0
  20
0.0
  30
0.0
  70
0
   0
VERTEX
   8
LEVEL001
   6
CONTINUOUS
  62
7
  10
 162.420
  20
 232.734
  30
0.0
   0
VERTEX
   8
LEVEL001
   6
CONTINUOUS
  62
7
  10
 163.095
  20
 232.734
  30
0.0
   0
VERTEX
   8
LEVEL001
   6
CONTINUOUS
  62
7
  10
 165.784
  20
 232.397
  30
0.0
   0
SEQEND
   0
LINE
   8
LEVEL001
   6
CONTINUOUS
  62
7
  10
 165.784
  20
 226.691
  30
0.0
  11
 165.784
  21
 232.397
  31
0.0
   0
LINE
   8
LEVEL001
   6
CONTINUOUS
  62
7
  10
 162.420
  20
 226.691
  30
0.0
  11
 162.420
  21
 232.397
  31
0.0
   0
LINE
   8
LEVEL001
   6
CONTINUOUS
  62
7
  10
 169.148
  20
 226.691
  30
0.0
  11
 169.148
  21
 232.397
  31
0.0
   0
POLYLINE
   8
LEVEL001
   6
CONTINUOUS
  62
7
  66
1
  10
0.0
  20
0.0
  30
0.0
  70
0
   0
VERTEX
   8
LEVEL001
   6
CONTINUOUS
  62
7
  10
 169.148
  20
 232.734
  30
0.0
   0
VERTEX
   8
LEVEL001
   6
CONTINUOUS
  62
7
  10
 169.823
  20
 232.734
  30
0.0
   0
VERTEX
   8
LEVEL001
   6
CONTINUOUS
  62
7
  10
 172.512
  20
 232.397
  30
0.0
   0
SEQEND
   0
LINE
   8
LEVEL001
   6
CONTINUOUS
  62
7
  10
 169.148
  20
 232.734
  30
0.0
  11
 169.148
  21
 232.397
  31
0.0
   0
POLYLINE
   8
LEVEL001
   6
CONTINUOUS
  62
7
  66
1
  10
0.0
  20
0.0
  30
0.0
  70
0
   0
VERTEX
   8
LEVEL001
   6
CONTINUOUS
  62
7
  10
 165.784
  20
 232.734
  30
0.0
   0
VERTEX
   8
LEVEL001
   6
CONTINUOUS
  62
7
  10
 166.459
  20
 232.734
  30
0.0
   0
VERTEX
   8
LEVEL001
   6
CONTINUOUS
  62
7
  10
 169.148
  20
 232.397
  30
0.0
   0
SEQEND
   0
LINE
   8
LEVEL001
   6
CONTINUOUS
  62
7
  10
 165.784
  20
 232.734
  30
0.0
  11
 165.784
  21
 232.397
  31
0.0
   0
LINE
   8
LEVEL001
   6
CONTINUOUS
  62
7
  10
 162.420
  20
 232.734
  30
0.0
  11
 162.420
  21
 232.397
  31
0.0
   0
LINE
   8
LEVEL001
   6
CONTINUOUS
  62
7
  10
 142.846
  20
 238.712
  30
0.0
  11
 145.070
  21
 238.712
  31
0.0
   0
LINE
   8
LEVEL001
   6
CONTINUOUS
  62
7
  10
 145.512
  20
 234.212
  30
0.0
  11
 146.406
  21
 234.212
  31
0.0
   0
LINE
   8
LEVEL001
   6
CONTINUOUS
  62
7
  10
 146.406
  20
 226.337
  30
0.0
  11
 151.343
  21
 226.337
  31
0.0
   0
LINE
   8
LEVEL001
   6
CONTINUOUS
  62
7
  10
 145.070
  20
 220.712
  30
0.0
  11
 145.520
  21
 221.162
  31
0.0
   0
POINT
   8
LEVEL001
  62
7
  10
 145.520
  20
 220.712
  30
0.0
   0
LINE
   8
LEVEL001
   6
CONTINUOUS
  62
7
  10
 145.295
  20
 225.212
  30
0.0
  11
 145.295
  21
 225.212
  31
0.0
   0
POINT
   8
LEVEL001
  62
7
  10
 145.520
  20
 226.112
  30
0.0
   0
LINE
   8
LEVEL001
   6
CONTINUOUS
  62
7
  10
 145.512
  20
 225.212
  30
0.0
  11
 146.406
  21
 225.212
  31
0.0
   0
LINE
   8
LEVEL001
   6
CONTINUOUS
  62
7
  10
 142.500
  20
 220.712
  30
0.0
  11
 145.070
  21
 220.712
  31
0.0
   0
ARC
   8
LEVEL001
   6
CONTINUOUS
  62
7
  10
 151.536
  20
 226.511
  30
0.0
  40
 0.180000
  50
 90.0000
  51
 179.997
   0
POINT
   8
LEVEL001
  62
7
  10
 151.356
  20
 226.691
  30
0.0
   0
POLYLINE
   8
LEVEL001
   6
CONTINUOUS
  62
7
  66
1
  10
0.0
  20
0.0
  30
0.0
  70
0
   0
VERTEX
   8
LEVEL001
   6
CONTINUOUS
  62
7
  10
 151.536
  20
 226.691
  30
0.0
   0
VERTEX
   8
LEVEL001
   6
CONTINUOUS
  62
7
  10
 156.367
  20
 226.691
  30
0.0
   0
VERTEX
   8
LEVEL001
   6
CONTINUOUS
  62
7
  10
 159.056
  20
 227.028
  30
0.0
   0
SEQEND
   0
POLYLINE
   8
LEVEL001
   6
CONTINUOUS
  62
7
  66
1
  10
0.0
  20
0.0
  30
0.0
  70
0
   0
VERTEX
   8
LEVEL001
   6
CONTINUOUS
  62
7
  10
 169.148
  20
 226.691
  30
0.0
   0
VERTEX
   8
LEVEL001
   6
CONTINUOUS
  62
7
  10
 169.823
  20
 226.691
  30
0.0
   0
VERTEX
   8
LEVEL001
   6
CONTINUOUS
  62
7
  10
 172.512
  20
 227.028
  30
0.0
   0
SEQEND
   0
POLYLINE
   8
LEVEL001
   6
CONTINUOUS
  62
7
  66
1
  10
0.0
  20
0.0
  30
0.0
  70
0
   0
VERTEX
   8
LEVEL001
   6
CONTINUOUS
  62
7
  10
 165.784
  20
 226.691
  30
0.0
   0
VERTEX
   8
LEVEL001
   6
CONTINUOUS
  62
7
  10
 166.459
  20
 226.691
  30
0.0
   0
VERTEX
   8
LEVEL001
   6
CONTINUOUS
  62
7
  10
 169.148
  20
 227.028
  30
0.0
   0
SEQEND
   0
POLYLINE
   8
LEVEL001
   6
CONTINUOUS
  62
7
  66
1
  10
0.0
  20
0.0
  30
0.0
  70
0
   0
VERTEX
   8
LEVEL001
   6
CONTINUOUS
  62
7
  10
 162.420
  20
 226.691
  30
0.0
   0
VERTEX
   8
LEVEL001
   6
CONTINUOUS
  62
7
  10
 163.095
  20
 226.691
  30
0.0
   0
VERTEX
   8
LEVEL001
   6
CONTINUOUS
  62
7
  10
 165.784
  20
 227.028
  30
0.0
   0
SEQEND
   0
POLYLINE
   8
LEVEL001
   6
CONTINUOUS
  62
7
  66
1
  10
0.0
  20
0.0
  30
0.0
  70
0
   0
VERTEX
   8
LEVEL001
   6
CONTINUOUS
  62
7
  10
 159.056
  20
 226.691
  30
0.0
   0
VERTEX
   8
LEVEL001
   6
CONTINUOUS
  62
7
  10
 159.731
  20
 226.691
  30
0.0
   0
VERTEX
   8
LEVEL001
   6
CONTINUOUS
  62
7
  10
 162.420
  20
 227.028
  30
0.0
   0
SEQEND
   0
LINE
   8
LEVEL001
   6
DASHDOT
  62
1
  10
 138.393
  20
 229.712
  30
0.0
  11
 174.893
  21
 229.712
  31
0.0
   0
ARC
   8
LEVEL001
   6
CONTINUOUS
  62
7
  10
 142.846
  20
 239.612
  30
0.0
  40
 0.900000
  50
 179.000
  51
 270.000
   0
ARC
   8
LEVEL001
   6
CONTINUOUS
  62
7
  10
 142.500
  20
 219.812
  30
0.0
  40
 0.900000
  50
 90.0000
  51
 179.000
   0
LINE
   8
LEVEL001
   6
CONTINUOUS
  62
7
  10
 172.512
  20
 232.397
  30
0.0
  11
 172.512
  21
 226.997
  31
0.0
   0
LINE
   8
LEVEL001
   6
CONTINUOUS
  62
1
  10
 142.362
  20
 175.705
  30
0.0
  11
 142.362
  21
 175.705
  31
0.0
   0
LINE
   8
LEVEL001
   6
CONTINUOUS
  62
1
  10
 145.520
  20
 218.712
  30
0.0
  11
 145.520
  21
 173.705
  31
0.0
   0
LINE
   8
LEVEL001
   6
CONTINUOUS
  62
1
  10
 142.362
  20
 175.705
  30
0.0
  11
 145.520
  21
 175.705
  31
0.0
   0
LINE
   8
LEVEL001
   6
CONTINUOUS
  62
1
  10
 142.362
  20
 175.705
  30
0.0
  11
 138.362
  21
 176.232
  31
0.0
   0
LINE
   8
LEVEL001
   6
CONTINUOUS
  62
1
  10
 142.362
  20
 175.705
  30
0.0
  11
 138.362
  21
 175.179
  31
0.0
   0
LINE
   8
LEVEL001
   6
CONTINUOUS
  62
1
  10
 145.520
  20
 175.705
  30
0.0
  11
 149.520
  21
 175.179
  31
0.0
   0
LINE
   8
LEVEL001
   6
CONTINUOUS
  62
1
  10
 145.520
  20
 175.705
  30
0.0
  11
 149.520
  21
 176.232
  31
0.0
   0
LINE
   8
LEVEL001
   6
CONTINUOUS
  62
1
  10
 142.362
  20
 175.705
  30
0.0
  11
 137.362
  21
 175.705
  31
0.0
   0
LINE
   8
LEVEL001
   6
CONTINUOUS
  62
1
  10
 145.520
  20
 175.705
  30
0.0
  11
 150.520
  21
 175.705
  31
0.0
   0
TEXT
   8
LEVEL001
  62
1
  10
 134.962
  20
 167.205
  30
0.0
  40
 6.00000
   1
3.5
   7
STANDARD
  72
1
  11
 143.962
  21
 167.205
  31
0.0
   0
LINE
   8
LEVEL001
   6
CONTINUOUS
  62
1
  10
 145.520
  20
 218.712
  30
0.0
  11
 145.520
  21
 173.705
  31
0.0
   0
LINE
   8
LEVEL001
   6
CONTINUOUS
  62
1
  10
 172.512
  20
 224.997
  30
0.0
  11
 172.512
  21
 173.705
  31
0.0
   0
LINE
   8
LEVEL001
   6
CONTINUOUS
  62
1
  10
 145.520
  20
 175.705
  30
0.0
  11
 172.512
  21
 175.705
  31
0.0
   0
LINE
   8
LEVEL001
   6
CONTINUOUS
  62
1
  10
 145.520
  20
 175.705
  30
0.0
  11
 149.520
  21
 175.179
  31
0.0
   0
LINE
   8
LEVEL001
   6
CONTINUOUS
  62
1
  10
 145.520
  20
 175.705
  30
0.0
  11
 149.520
  21
 176.232
  31
0.0
   0
LINE
   8
LEVEL001
   6
CONTINUOUS
  62
1
  10
 172.512
  20
 175.705
  30
0.0
  11
 168.512
  21
 176.232
  31
0.0
   0
LINE
   8
LEVEL001
   6
CONTINUOUS
  62
1
  10
 172.512
  20
 175.705
  30
0.0
  11
 168.512
  21
 175.179
  31
0.0
   0
TEXT
   8
LEVEL001
  62
1
  10
 153.016
  20
 178.277
  30
0.0
  40
 6.00000
   1
30
   7
STANDARD
  72
1
  11
 159.016
  21
 178.277
  31
0.0
   0
POINT
   8
LEVEL001
  62
7
  10
 78.4619
  20
 113.712
  30
0.0
   0
POINT
   8
LEVEL001
  62
7
  10
 78.4619
  20
 104.713
  30
0.0
   0
POINT
   8
LEVEL001
  62
7
  10
 78.4620
  20
 95.7128
  30
0.0
   0
ARC
   8
LEVEL001
   6
CONTINUOUS
  62
7
  10
 78.4619
  20
 104.713
  30
0.0
  40
 8.99973
  50
 270.000
  51
 90.0000
   0
ARC
   8
LEVEL001
   6
CONTINUOUS
  62
7
  10
 78.4619
  20
 104.713
  30
0.0
  40
 2.68397
  50
 270.000
  51
 90.0000
   0
ARC
   8
LEVEL001
   6
CONTINUOUS
  62
7
  10
 78.4619
  20
 104.713
  30
0.0
  40
 3.02147
  50
 270.000
  51
 90.0000
   0
ARC
   8
LEVEL001
   6
CONTINUOUS
  62
7
  10
 78.4619
  20
 104.713
  30
0.0
  40
 1.78397
  50
 270.000
  51
 90.0000
   0
POLYLINE
   8
LEVEL001
   6
CONTINUOUS
  62
7
  66
1
  10
0.0
  20
0.0
  30
0.0
  70
0
   0
VERTEX
   8
LEVEL001
   6
CONTINUOUS
  62
7
  10
 78.4619
  20
 98.4772
  30
0.0
   0
VERTEX
   8
LEVEL001
   6
CONTINUOUS
  62
7
  10
 82.0619
  20
 98.4772
  30
0.0
   0
VERTEX
   8
LEVEL001
   6
CONTINUOUS
  62
7
  10
 85.6619
  20
 104.713
  30
0.0
   0
VERTEX
   8
LEVEL001
   6
CONTINUOUS
  62
7
  10
 82.0619
  20
 110.948
  30
0.0
   0
VERTEX
   8
LEVEL001
   6
CONTINUOUS
  62
7
  10
 78.4619
  20
 110.948
  30
0.0
   0
SEQEND
   0
ARC
   8
LEVEL001
   6
CONTINUOUS
  62
7
  10
 78.4619
  20
 104.713
  30
0.0
  40
 8.99973
  50
 90.0000
  51
 270.000
   0
ARC
   8
LEVEL001
   6
CONTINUOUS
  62
7
  10
 78.4619
  20
 104.713
  30
0.0
  40
 2.68397
  50
 90.0000
  51
 270.000
   0
ARC
   8
LEVEL001
   6
CONTINUOUS
  62
7
  10
 78.4619
  20
 104.713
  30
0.0
  40
 3.02147
  50
 90.0000
  51
 270.000
   0
ARC
   8
LEVEL001
   6
CONTINUOUS
  62
7
  10
 78.4619
  20
 104.713
  30
0.0
  40
 1.78397
  50
 90.0000
  51
 270.000
   0
POLYLINE
   8
LEVEL001
   6
CONTINUOUS
  62
7
  66
1
  10
0.0
  20
0.0
  30
0.0
  70
0
   0
VERTEX
   8
LEVEL001
   6
CONTINUOUS
  62
7
  10
 78.4619
  20
 98.4772
  30
0.0
   0
VERTEX
   8
LEVEL001
   6
CONTINUOUS
  62
7
  10
 74.8619
  20
 98.4772
  30
0.0
   0
VERTEX
   8
LEVEL001
   6
CONTINUOUS
  62
7
  10
 71.2619
  20
 104.713
  30
0.0
   0
VERTEX
   8
LEVEL001
   6
CONTINUOUS
  62
7
  10
 74.8619
  20
 110.948
  30
0.0
   0
VERTEX
   8
LEVEL001
   6
CONTINUOUS
  62
7
  10
 78.4619
  20
 110.948
  30
0.0
   0
SEQEND
   0
LINE
   8
LEVEL001
   6
CONTINUOUS
  62
1
  10
 109.262
  20
 200.012
  30
0.0
  11
 205.462
  21
 200.012
  31
0.0
   0
LINE
   8
LEVEL001
   6
CONTINUOUS
  62
1
  10
 176.893
  20
 229.712
  30
0.0
  11
 205.462
  21
 229.712
  31
0.0
   0
LINE
   8
LEVEL001
   6
CONTINUOUS
  62
1
  10
 203.462
  20
 200.012
  30
0.0
  11
 203.462
  21
 229.712
  31
0.0
   0
LINE
   8
LEVEL001
   6
CONTINUOUS
  62
1
  10
 203.462
  20
 200.012
  30
0.0
  11
 203.988
  21
 204.012
  31
0.0
   0
LINE
   8
LEVEL001
   6
CONTINUOUS
  62
1
  10
 203.462
  20
 200.012
  30
0.0
  11
 202.935
  21
 204.012
  31
0.0
   0
LINE
   8
LEVEL001
   6
CONTINUOUS
  62
1
  10
 203.462
  20
 229.712
  30
0.0
  11
 202.935
  21
 225.712
  31
0.0
   0
LINE
   8
LEVEL001
   6
CONTINUOUS
  62
1
  10
 203.462
  20
 229.712
  30
0.0
  11
 203.988
  21
 225.712
  31
0.0
   0
TEXT
   8
LEVEL001
  62
1
  10
 200.890
  20
 208.862
  30
0.0
  40
 6.00000
   1
34
  50
 90.0000
   7
STANDARD
  72
1
  11
 200.890
  21
 214.862
  31
0.0
   0
LINE
   8
LEVEL001
   6
CONTINUOUS
  62
1
  10
 174.512
  20
 226.997
  30
0.0
  11
 190.462
  21
 226.997
  31
0.0
   0
LINE
   8
LEVEL001
   6
CONTINUOUS
  62
1
  10
 174.512
  20
 232.397
  30
0.0
  11
 190.462
  21
 232.397
  31
0.0
   0
LINE
   8
LEVEL001
   6
CONTINUOUS
  62
1
  10
 188.462
  20
 226.997
  30
0.0
  11
 188.462
  21
 232.397
  31
0.0
   0
LINE
   8
LEVEL001
   6
CONTINUOUS
  62
1
  10
 188.462
  20
 232.397
  30
0.0
  11
 188.462
  21
 247.705
  31
0.0
   0
LINE
   8
LEVEL001
   6
CONTINUOUS
  62
1
  10
 188.462
  20
 226.997
  30
0.0
  11
 187.935
  21
 222.997
  31
0.0
   0
LINE
   8
LEVEL001
   6
CONTINUOUS
  62
1
  10
 188.462
  20
 226.997
  30
0.0
  11
 188.988
  21
 222.997
  31
0.0
   0
LINE
   8
LEVEL001
   6
CONTINUOUS
  62
1
  10
 188.462
  20
 232.397
  30
0.0
  11
 188.988
  21
 236.397
  31
0.0
   0
LINE
   8
LEVEL001
   6
CONTINUOUS
  62
1
  10
 188.462
  20
 232.397
  30
0.0
  11
 187.935
  21
 236.397
  31
0.0
   0
LINE
   8
LEVEL001
   6
CONTINUOUS
  62
1
  10
 188.462
  20
 226.997
  30
0.0
  11
 188.462
  21
 221.997
  31
0.0
   0
LINE
   8
LEVEL001
   6
CONTINUOUS
  62
1
  10
 188.462
  20
 232.397
  30
0.0
  11
 188.462
  21
 247.705
  31
0.0
   0
TEXT
   8
LEVEL001
  62
1
  10
 185.890
  20
 235.705
  30
0.0
  40
 6.00000
   1
%%c6
  50
 90.0000
   7
STANDARD
   0
ENDSEC
   0
EOF
